Song name
# A B C D E F G H I J K L M N O P Q R S T U V W X Y Z

Gaate - Kjaerleik tab

Folk Rock band Gåte

"Kjærleik" from the album Iselilja

Tuning: standard (e-a-d-g-b-e)

Distorted guitar - staccato style


|--------------------------------------------------------------------|
|--------------------------------------------------------------------|
|--4-4-4-4---4-4-4-4-4---4-4-4-4-4-4-4-4-4---4-4-4-4-4---4-4-4-4-4---|
|--4-4-4-4---4-4-4-4-4---4-4-4-4-4-5-5-5-5---5-5-5-5-5---5-5-5-5-5---|
|--2-2-2-2---2-2-2-2-2---2-2-2-2-2-2-2-2-2---2-2-2-2-2---2-2-2-2-2---|
|--------------------------------------------------------------------|

|--------------------------------------------------------------------|
|--------------------------------------------------------------------|
|--6-6-6-6---6-6-6-6-6---6-6-6-6-6-6-6-6-6---6-6-6-6-6---6-6-6-6-6---|
|--7-7-7-7---7-7-7-7-7---7-7-7-7-7-7-7-7-7---7-7-7-7-7---7-7-7-7-7---|
|--4-4-4-4---4-4-4-4-4---4-4-4-4-4-5-5-5-5---5-5-5-5-5---5-5-5-5-5---|
|--------------------------------------------------------------------|

|--------------------------------------------------------------------|
|--------------------------------------------------------------------|
|--7-7-7-7---7-7-7-7-7---7-7-7-7-7-9-9-9-9---9-9-9-9-9---9-9-9-9-9---|
|--7-7-7-7---7-7-7-7-7---7-7-7-7-7-9-9-9-9---9-9-9-9-9---9-9-9-9-9---|
|--5-5-5-5---5-5-5-5-5---5-5-5-5-5-7-7-7-7---7-7-7-7-7---7-7-7-7-7---|
|--------------------------------------------------------------------|

|--------------------------------------------------------------------|
|--------------------------------------------------------------------|
|--6-6-6-6---6-6-6-6-6---6-6-6-6-6-4-4-4-4---4-4-4-4-4---4-4-4-4-4---|
|--7-7-7-7---7-7-7-7-7---7-7-7-7-7-4-4-4-4---4-4-4-4-4---4-4-4-4-4---|
|--4-4-4-4---4-4-4-4-4---4-4-4-4-4-2-2-2-2---2-2-2-2-2---2-2-2-2-2---|
|--------------------------------------------------------------------|

ENJOY :)
Tap to rate this tab
# A B C D E F G H I J K L M N O P Q R S T U V W X Y Z