Song name
# A B C D E F G H I J K L M N O P Q R S T U V W X Y Z

Gabby Young And Other Animals - Were All In This Together tab

Song:    We're All In This Together
Artist:  Gabby Young And Other Animals
Website: gabbyyoungandotheranimals.com

Guitar I
e|-------------------------------------------------------------------------|
B|-----9-------9-------9-------9-------9-------9-------9-------9-----------|
G|-----9-------9-------9-------9-------9-------9-------9-------9-----------|
D|-------------------------------------------------------------------------|
A|-----------------0-------9-------7---------------------------------------|
E|-9-----------------------------------------------7-----------------------|

Guitar II (banjo)
e|-0-2-4----4------0-2-4----2-0----0-2-4----4------0-2-4---5-4-2-----------|
B|-------------------------------------------------------------------------|
G|-------------------------------------------------------------------------|
D|-------------------------------------------------------------------------|
A|-------------------------------------------------------------------------|
E|-------------------------------------------------------------------------|
Tap to rate this tab
# A B C D E F G H I J K L M N O P Q R S T U V W X Y Z