Guitaretab - guitar tabs
Song name
# A B C D E F G H I J K L M N O P Q R S T U V W X Y Z

Gabe Bondoc - My Life My Love My Everything tab

Artist: Gabe Bondoc
Song: My Life, My Love, My Everything


This is an amazing song guys... especially if you're looking to play this for that
someone." i'm 100% that everything is exact and correct, and you've may had a lot of trouble
to figure it out yourself, but here's your soloution... EVERYTHING IS TUNED A HALF STEP
again i repeat, it's not standard EADGBe tuning.. it's D#G#C#F#A#d# Tuning... AND
requires a capo on the first fret in the last verse.... so if you don't have a tuner at
don't worry just apply the CAPO to the first fret and tune it down to standard tuning
the CAPO is on and when you remove the capo after you've tuned the strings back down, 
will be automatically tuned into the half step tuning required to play this song
ENJOY!! -_^


Tuning:D#G#C#F#A#d#
Capo 1 on last verse (have it ready to switch quickly)
Style: Finger Plucking

~ = let ring
h = hammer-on
p = pull-off
x = palm-mute
/ = slide-up

Verse 1: "We've been together for a while now..."
E----0----|---------|---------|------------|
B---3-3---|----3----|----3----|--------3-3~|
G--2---2--|---2-2---|---2-2---|--------0-0~| x2
D-0-------|--0---0--|--0---0--|----0--0--0~|
A-------4~|-2-----0~|---------|-0h2--2--0~~|
E---------|---------|-3-----2~|-----0------|

Pre-Chorus: "This little box holds a shiny thing..."
E-------------|-------------|-------------|--------|
B---------3-3~|---------3-3~|---------3-3~|----3-3~|
G---------0-2~|---------0-2~|---------0-0~|---0--3~|
D--------0--0~|--------0--0~|--------0--0~|--2---2~|
A-0-----2-----|-0-----2-----|-0-----2--2~~|-0---0~~|
E--3p2p0---2~~|--3p2p0---2~~|--3p2p0------|--------|

Chorus: "My Life, My Love, My Everything..."
E----0----|---------|---------|------------|
B---3-3---|----3----|----3----|--------3-3~|
G--2---2--|---2-2---|---2-2---|--------0-0~|
D-0-------|--0---0--|--0---0--|----0--0--0~|
A-------4~|-2-----0~|---------|-0h2--2--0~~|
E---------|---------|-3-----2~|-----0------|

E----0----|---------|---------|------------|
B---3-3---|----3----|----3----|--------3-3~|
G--2---2--|---2-2---|---2-2---|--------0-1~|
D-0-------|--0---0--|--0---0--|----0--0--0~|
A-------4~|-2-----0~|---------|-0h2--2--2~~|
E---------|---------|-3-----2~|-----0------|

"I'll look deep in your eyes..."
E----x---|------------|
B-33-x-3~|--------3-3~|
G-22-x-2~|--------0-0~|
D-00-x-0~|----0--0--0~|x2
A----x---|-0h2--2--0~~|
E-33-x-2~|-----0------|

Verse 2: "Love is complex in it's simplicity..."
E----0-----|----------|----------|------------|
B---3-3----|----3-----|----3-----|--------3-3~|
G--2---2---|---2-2----|---2-2----|--------0-0~|
D-0--------|--0---0---|--0---0---|----0--0--0~|
A-------4~~|-2-----0~~|----------|-0h2--2--0~~|
E----------|----------|-3-----2~~|-----0------|
[ Tab from: http://www.guitaretab.com/g/gabe-bondoc/110977.html ]
"It isn't just because you're beautiful..."
E-----x----|----x---|----x---|------------|
B---3-x----|-33-x-3~|-33-x-3~|--------3-3~|
G--2--x----|-22-x-2~|-22-x-2~|--------0-0~|
D-0---x----|-00-x-0~|-00-x-0~|----0--0--0~|
A-----x-4~~|-22-x-0~|----x---|-0h2--2--0~~|
E-----x----|----x---|-33-x-2~|-----0------|

Pre-Chorus [same]: "This little box holds a shiny thing..."
E-------------|-------------|-------------|--------|
B---------3-3~|---------3-3~|---------3-3~|----3-3~|
G---------0-2~|---------0-2~|---------0-0~|---0--3~|
D--------0--0~|--------0--0~|--------0--0~|--2---2~|
A-0-----2-----|-0-----2-----|-0-----2--2~~|-0---0~~|
E--3p2p0---2~~|--3p2p0---2~~|--3p2p0------|--------|

Chorus: "My Life, My Love, My Everything..."
E----0----|---------|---------|------------|
B---3-3---|----3----|----3----|--------3-3~|
G--2---2--|---2-2---|---2-2---|--------0-0~|
D-0-------|--0---0--|--0---0--|----0--0--0~|
A-------4~|-2-----0~|---------|-0h2--2--0~~|
E---------|---------|-3-----2~|-----0------|

E----0----|---------|---------|------------|
B---3-3---|----3----|----3----|--------3-3~|
G--2---2--|---2-2---|---2-2---|--------0-1~|
D-0-------|--0---0--|--0---0--|----0--0--0~|
A-------4~|-2-----0~|---------|-0h2--2--2~~|
E---------|---------|-3-----2~|-----0------|

"I'll look deep in your eyes..."
E----x---|------------|
B-33-x-3~|--------3-3~|
G-22-x-2~|--------0-0~|
D-00-x-0~|----0--0--0~|
A----x---|-0h2--2--0~~|
E-33-x-2~|-----0------|

Bridge: "And ask you to be my... my once in a lifetime love...."
E-11-x-0~0-x-0~0-----1-------------|
B-11-x-1~1-x-1~1------1-------6----|
G-22-x-0~0-x-0~0---3----3---5--5-5-|
D-33-x-2~2-x-2~2----3--------5--5--|x3
A-11-x-0~0-x-0~0-------------------|
E----x-----x-----3-----3-3/5-------|

E-11-x-0~~0~~
B-11-x-1~~0~~
G-22-x-0~~0~~(while ringing, apply capo to first fret)
D-33-x-2~~0~~
A-11-x-0~~0~~
E----x----0~~

Verse 3 [Capo 1]:[starting on high pitched long note]"yeaaaaaaaaaaaaaaaaa..."

E----0-----0----|----------0----|----------|-------------|
B---3-3--3--3-3-|----3---3--3-3-|----3-----|--------3-3~~|
G--2---2--2--2--|---2-2---2--2--|---2-2----|----0---0-0~~|
D-0-------------|--0---0--------|--0---0---|-------0--0~~|
A-------4~~-----|-2-----0~~-----|----------|-0h2--2--0~~~|
E---------------|---------------|-3-----2~~|-----0-------|

"My Life, My Love, My Everything..."
E-55-x-5--4--2-----x-----5~~|----------|------------|
B-77-x-7--5--5--77-x-6-5~5~~|----3-----|--------3-3~|
D-66-x-6--4--3--77-x-6-5~5~~|---2-2----|--------0-1~|
G-77-x-7--6--2--77-x-6-5~5~~|--0---0---|----0--0--0~|
A-55-x-5--4--4--xx-x-x-x-5~~|----------|-0h2--2--2~~|
E----x-------2--77-x-6-5~---|-3-----2~~|-----0------|

"I'll look deep in your eyes..."
E----x---|------------|
B-33-x-3~|--------3-3~|
G-22-x-2~|--------0-0~|
D-00-x-0~|----0--0--0~|x2
A----x---|-0h2--2--0~~|
E-33-x-2~|-----0------|

Outro:

E----0----|---------|---------|------------------|----5~~~~~|
B---3-3---|----3----|----3----|--------3~~2h3/5~~|-3~~~~~~~~|
G--2---2--|---2-2---|---2-2---|--------0~~-------|-2~~~~~~~~|
D-0-------|--0---0--|--0---0--|----0--0----------|-0~~~~~~~~|
A-------4~|-2-----0~|---------|-0h2--2-----------|----------|
E---------|---------|-3-----2~|-----0------------|-2~~~~~~~~|
Related for My Life My Love My Everything tab
×
My Life My Love My Everything