Song name
# A B C D E F G H I J K L M N O P Q R S T U V W X Y Z

Gabe Bondoc - Sunday Morning tab

Help us improve GuitareTab! Take a short survey!
Gabe Bondoc
Sunday Morning

Tabbed by: Grimm

Standard Tuning: e A D G B E

x=Mute
^=Slap

Intro:
          ^         ^             ^
e|--------x---------x-----x-------x---------x-------------|  <2x
B|--3--3--x--2~-----x--2--x--1--1-x--1--1---x--1--1-------|
G|--3--3--x--3~-----x--3--x--2--2-x--2--2---x--2--2-------|
D|--3--3--x--2~-----x--2--x--2--2-x--2--2---x--2--2-------|
A|--------x--3---3--x--3--x-------x---------x-------------|
E|--3--3--x---------x-----x--1--1-x--1--1---x--1--1-------|

          ^         ^             ^
e|--------x---------x-----x-------x-----|  <2x
B|--3--3--x--2~-----x--2--x--1~---x--1--|
G|--3--3--x--3~-----x--3--x--2~---x--2--|
D|--3--3--x--2~-----x--2--x--2~---x--2--|
A|--------x--3--3---x--3--x-------x-----|
E|--3--3--x---------x-----x--1~---x--1--|


NOTE: These tabs pertain to majorly the whole song, so you may have to play around with 
strings a little.
Related for Sunday Morning tab