Song name
# A B C D E F G H I J K L M N O P Q R S T U V W X Y Z

Gabe Bondoc - Love Story tab

Song: Love Story (From Romeo's Perspective)
Artist: Gabe Bondoc
Tabbed By: Me


CAPO 4th FRET


This is just the picking part, but it's not fully correct. This will be tabbed relative 
the 4th fret, meaning
the fifth fret becomes the first fret, the sixth fret becomes the second fret, the 
fret becomes the third
fret, etc. I hope that made sense. Anyway... here's the tab:

E|------------------------------------------------------------------|
B|------------------------------------------------------------------|
G|-----4-----4-----4-----3h4---3h4------4-----4-----3h4---3h4---3h4-|
D|---4-----4-----4-----4-----4--------4-----4-----4-----4-----4-----|
A|-2-----2-----2-----2----------------------------------------------|
E|----------------------------------0-----0-----0-------------------|


E|-------------------------------|
B|-------------------------------|
G|-----4-----3h4-------4-----3h4-|
D|---4-----4---------4-----4-----|
A|-------------------------------|
E|-4-----4-------4-0-----0-------|
Tap to rate this tab
# A B C D E F G H I J K L M N O P Q R S T U V W X Y Z