Song name
# A B C D E F G H I J K L M N O P Q R S T U V W X Y Z

Gabe Bondoc - One Touch tab

---------------------------------------------------------
		"One Touch" - Gabe Bondoc
---------------------------------------------------------
Tabbed by: Justin Riray
Youtube:   http://www.youtube.com/JustinRiray
Facebook:  http://www.facebook.com/riray

Tuning: Standard

     MAIN RIFF
e|-----------------------------------3-------------------|
B|---0h1--3------3h5p3---------------3-------------------|
G|---0----0----0-------0-------------0-------------------|
D|---0h2--4--4-----------------0---0---------------------|
A|-0------5----------------0h2---3-----3-2---------------|
E|-----------------------3-------------------------------|

    MAIN RIFF ENDING
e|-------------------------------------------------------|
B|---0h1--1------1---------3h5p3-------------------------|
G|---0----0----0---------0-------0-----------------------|
D|---0h2--2--2---------4-----------4---------------------|
A|-0------0--------3/5---------------5-------------------|
E|-------------------------------------------------------|

     BRIDGE
e|------------------------------------------3-3----------|
B|---1-1---1------3-3---3------3-3---3------3-3----------|
G|---0-0-----0----0-0---0------0-0-----0----0-0----------|
D|---2-2-2--------4-4---4------0-0-0---------------------|
A|-0---0--------5---5-5---5---------------3---3--3-2-----|
E|---------------------------3---3-----------------------|

e|-------------------------------------------------------|
B|---1-1---1------3-3---3------1-----1-----3-2-2--1-1--3-|
G|---0-0-----0----0-0-----0----2-----2-----0-0-0--0-0--0-|
D|---2-2-2--------4-4-4--------2-----0-----0-2-2--2-2--4-|
A|-0---0--------5---5--------------2---2-----0----0-0--5-|
E|---------------------------2---2-------0---------------|
Tap to rate this tab
# A B C D E F G H I J K L M N O P Q R S T U V W X Y Z