Song name
# A B C D E F G H I J K L M N O P Q R S T U V W X Y Z

Gabe Bondoc - Gentlemen Dont tab

Gentlemen Don't
by Gabe Bondoc

transcribed by Nelson M- OH, almost gave away my real name there.


REFERENCE VIDEOS:
http://www.youtube.com/watch?v=mu00p0pHOIk <>to outro
D---9-----------------9------5-----------5-5-----|
A---7--------------------------------------------|
E--------------------------5---------------5-----|


bridge - first two chords are the end of the verse where he goes "no no i won't)
e--------*--------*-------------------------|
B------3-*--3-2h3-*----------3-----3--3-----|
G------4-*--2-----*-0------0----0--2--3-3---|
D------4-*--2-----*------4---------2--2-----|
A--------*--------*----------------0--------|
E---3----*--2-----*----0--------------2-----|
right before "cards on the table" - listen for rhythm, i'm too lazy to write it all down
e---------------------------------------------------5------------|
A----3----3----3----3---3----3----3----1----------3---3------3---|
G----4----2----0----2---3----4----2----0--------4-------4----3---|>>to chorus
D----4----2----2----2---2----4----2----2------5-----------5--5---|
A-------------------0--------------------------------------------|
E---/3----2----0--------2----3----2----0----5----------------5---|


outro - like the intro, but with the modified ending
e-------------5--------*-------------------------------------|
B------5-5h7-----5-5/7-*-7-----7-6-5---5------2-3--3~2h3-----|
G----7---6-------4-----*-7-----7-6-5h7-5-7--4------2~---2----|
D--7-----7---7---6-----*-7-----7-6-5---7----4------2~----2---|
A--------5-------4-----*---------------5---------------------|
E----------------------*-7-5/7-7-6-5--------3------2~--------|

e----------------------------------5--------0~-----|
B--------------------------------7---7------7~-----|
G---------0--7~----6~----------6-------6----6~-----|
D-------4----5~-5--5~-5------7-----------7--7~-----|
A-----2------7~----7~-----/5----------------5~-----|
E---0--------5-----5~------------------------------|

thanks and have fun.
Tap to rate this tab
 
# A B C D E F G H I J K L M N O P Q R S T U V W X Y Z