Song name
# A B C D E F G H I J K L M N O P Q R S T U V W X Y Z

Gabe Bondoc - When You Say Nine tab

"when you say (nine)" - gabe bondoc (copyright, 2010)
Alright, I don't tab that much but people were asking for this one a lot on
youtube so i tabbed it.
You can figure out the rhythm, strumming and hammer ons and all that stuff, but i gave 
all of the chords.
Parts 1 and 2 are basically interchangeable, because they're the same chords.
Same thing for part 3, he plays both in different parts of the song, but they both sound 
same.


Part 1 Intro/Verse/Chorus
E--x--x--2--0----|
B--x--4--2--0----|
G--1--4--2--2----|
D--4--2--4--1----|
A--2--4--4--2----|
E--0--x--2--0----|

Part 2 Chorus
E--x--4--2--0----|
B--x--5--2--0----|
G--1--4--2--2----|
D--4--6--2--1----|
A--2--4--x--2----|
E--0--x--2--0----|

Part 3
E--2--4--x------2--4--5--0---|         E--2--4--x------2--4--5--0---|
B--2--4--4------2--4--5--0---|         B--2--4--4------2--4--5--0---|
G--2--4--4------2--4--5--2---|         G--2--4--4------2--4--5--2---|
D--2--4--3------2--4--5--1---| and/or  D--4--6--3------4--6--7--1---|
A--x--x--4------x--x--x--2---|         A--4--6--4------4--6--7--2---|
E--2--4--x------2--4--5--0---|         E--2--4--x------2--4--5--0---|

Part 4 Bridge
E--0--0--2--0--4--x--2--4--0--7--8--|
B--3--0--2--0--4--4--2--4--5--5--6--|
G--4--2--2--2--4--4--2--4--6--6--7--|
D--2--1--2--1--4--3--2--4--6--7--8--|
A--3--2--x--2--x--4--x--x--x--x--x--|
E--0--0--2--0--4--x--2--4--5--7--8--|

Part 5 Verse (after key change)
E--1--x--3--3h5------|
B--1--5--3--3--------|
G--2--5--3--3--------|
D--3--3--5--3--------|
A--3--5--5--x--------|
E--1--x--3--3--------|

Part 6
E--8--12---x--x-----|
B--8--10--10--x-----|
G--x--10--10--3-----|
D--7--10---8--2-----|
A--8---x--10--3-----|
E--0--10---x--x-----|

Intro x2

(1)I remember the first time
it's always playing in my mind
I've never felt like this before
nononono

(1)and every time that you kiss me
feels like I'm having a sweet dream
and i'mma never feel the way i do with anyone else

(3)my pulse is racing
when I see your face and
here is what you're doing to me

(1)when you
when you say
you love
love me
I can feel my heart
beat beat
race behind my chest

(1)every time is the first time
so I pretend it's the last time
that I'mma ever hear you say those words
three little words

(1)I wanna hold you forever
I promise that I ain't never
never ever gonna let you go
I want you to know

(3)my pulse is racing
when I see your face and
here is what you're doing to me

(2)when you
when you say
you love
love me
I can feel my heart
beat beat
race behind my chest

(4)if ever you question my feelings
place your hand on my heart, you'll feel it's beating for you
cuz he knows, he knew before I did
I'm not scared, I'm tired of hiding
I know that it's you because

(5)when you
when you say
you love
love me
I can feel my heart
beat beat
race behind my chest

Play part (6), then (5) and fade out
Tap to rate this tab
# A B C D E F G H I J K L M N O P Q R S T U V W X Y Z