Song name
# A B C D E F G H I J K L M N O P Q R S T U V W X Y Z

Gabe Bondoc - Anywhere Anything tab

-----------------------------------------------------------------------------
                       Anywhere, Anything - Gabe Bondoc
-----------------------------------------------------------------------------

Original video: http://www.youtube.com/watch?v=ytF6kAfTSUQ

Tabbed by: Abia T.
E-mail:

Tuning: Standard

Intro (Pattern 1)

e|-------5-------------x----x-------x----/---------------x-----x------------|
B|---7---7---8-8-7-----7----7-------7----/10---8-8-7-----7-----7------------|
G|---6---6---8-----8---7----6----7--6----/9----8-----8---7-----6------------|
D|---7-------7-------7-5----5----5--5----/10---7-------7-5-----5------------|
A|---5-------x---------7----x----x--x----/9----x---------7-----x------------|
E|-----------7---------x----5----5--5----/-----7---------x-----5------------|

Pre-Chorus (Pattern 2)

e|---x-----x-------x-------x----x-x-x----x-----x--------------------x-------|
B|---3-----3---2---3---3---7----7-8-10---3-----3---2-----------3----3-------|
G|---2-----2---2---0---4---6----6-7-9----2-----2---2---------0------4-------|
D|---0-----0---0---4---5---7----7-9-11---0-----0---0-------4--------5-------|
A|---x-----x---2---2---x---5----5-7-9----x-----x---2----------------x-------|
E|---3-----2-------0---5---x----x-x-x----3-----2-------0------------5-------|

Pattern 1 goes on in all verses, except sometimes simplified. So only the chords, 
not the seperate notes and extra stuff.
The chorus also has the same simplified pattern but there are some more chords 
after it, which I call Pattern 3.

Pattern 3

e|---x-----x-----x-----x-----x----x----x----/x------------------------------|
B|---5-----5-----5-----3-----3----3----3----/3------------------------------|
G|---7-----6-----7-----4-----2----2----1----/4------------------------------|
D|---7-----5-----7-----4-----2----2----0----/5------------------------------|
A|---x-----x-----x-----x-----x----x----x----/x------------------------------|
E|---7-----6-----5-----4-----3----2----1----/5------------------------------|


Bridge (Pattern 4)

e|---x----x---------------------x---------|---------------------------------|
B|---3----3----2----3---------3-x----2----|---------------------------------|
G|---2----2----2----0-------0---2----2----|-2x------------------------------|
D|---0----0----0----4-----4-----2----0----|-2x------------------------------|
A|---x----x----2----2---2-------x----2----|---------------------------------|
E|---3----2---------0-----------2---------|---------------------------------|

e|---x----x----x---x----x----x----x----x----x-------------------------------|
B|---3----2----2---2----0----3----3----3----3-------------------------------|
G|---0----3----0---2----1----2----2----1----4-------------------------------|
D|---4----2----2---0----0----2----2----0----5-------------------------------|
A|---2----x----1---2----x----x----x----x----x-------------------------------|
E|---0----2----x---x----0----3----2----1----5-------------------------------|

Song Structure:

Intro (Pattern 1)
Verse (Pattern 1+2)
Chorus (1+3)
Intro (Half of 1)
Verse (1+2)
Chorus (1+3)
Bridge (4)
Interlude (Half of 1)
Chorus (1+3)
Outro (1, face out)

************************************

| /   slide up
| \   slide down
| h   hammer-on
| p   pull-off
| ~   vibrato
| +   harmonic
| x   Mute note
| b   Bend
| pb  Pre-bend
| br  Bend release
| pbr Pre-bend release
| brb Bend release bend

************************************
Tap to rate this tab
# A B C D E F G H I J K L M N O P Q R S T U V W X Y Z