Song name
# A B C D E F G H I J K L M N O P Q R S T U V W X Y Z

Gabe Bondoc - Nothing tab

Gabe Bondoc - Nothing
This is finger picking, so only play the notes written in the tabs!
s: slide  h: hammer

Intro Solo
e|-12--10-9--8s9-----------12-----------------12-----|
B|----------------10----------12---10-9h10-12----10--|
G|---------------------------------------------------|
D|---------------------------------------------------|
A|---------------------------------------------------|
E|---------------------------------------------------|



Verse & Chorus (whole song)
Bm7  E   AM7  F#m7
[x] [x]  [x]  [x]
[3] [0]  [2]  [2]
[2] [1]  [1]  [2]
[4] [2]  [2]  [2]
[2] [2]  [0]  [x]
[x] [x]  [x]  [2]



Interlude Solo
e|---------------------------------12--9-------------------|
B|----- -10-12--12s14-12-10-12------------12-10------------|
G|-9s11------------------------------------------9s11-9----|
D|---------------------------------------------------------|
A|---------------------------------------------------------|
E|---------------------------------------------------------|
Tap to rate this tab
 
# A B C D E F G H I J K L M N O P Q R S T U V W X Y Z