Song name
# A B C D E F G H I J K L M N O P Q R S T U V W X Y Z

Gabriel Peter - In Your Eyes tab

Help us improve GuitareTab! Take a short survey!
In Your Eyes
Status Quo
In The Army 1986


E|------------------------------------------------|
B|-(12b)-12-10-12b~---------10~~~-9~--8-8-8-10-12-|
G|------------------12-9--------------------------|
D|-----------------------10-----------------------|
A|------------------------------------------------|
E|------------------------------------------------|


E|-----------------------------------|
B|-12b~---------10~~~-9~-8-8-8-10-12-|
G|------12-9-------------------------|
D|-----------10----------------------|
A|-----------------------------------|
E|-----------------------------------|

Related for In Your Eyes tab