Song name
# A B C D E F G H I J K L M N O P Q R S T U V W X Y Z

Gabrielle Aplin - Out On My Own tab

----------------------------------------------------------------------
                             Out On My Own - Gabrielle Aplin
----------------------------------------------------------------------
Tabbed by: Neil Wicker
Email: wicker101@hotmail.co.uk

Tuning: Standard 
tabbed from this: http://www.youtube.com/watch?v=3Mk87hkMl-c 

Capo 5 (all notes relative to capo) 

Intro:

    Cadd9                   Em7           G 
e|-------------------------------------------------------|
B|-----3-----3-----0-----3-----3-----3---------3-----3---|
G|-----0-----0-----------0-----0-----0---------0-----0---|
D|-------------------------------------------------------| x2
A|--------------3-----3-----2-----2----------------------|
E|--0-----0----------------------------(2)-3------3------|



Verse 1:
    Cadd9                   Em7           G
e|-------------------------------------------------------|
B|-----3-----3-----3-----3-----3-----3---------3-----3---|
G|-----0-----0-----0-----0-----0-----0---------0-----0---|
D|-------------------------------------------------------| x4
A|--------------3-----3-----2-----2----------------------|
E|--0-----0----------------------------(2)-3------3------|

I think Iíve outgrown my home
Iím kind of feeling lost wherever I go
And I could be staring it right in the face and I wouldnít know
I think Iíve outgrown my home

Verse 2:
    Cadd9                  Em7            G
e|-------------------------------------------------------|
B|-----3-----3-----3-----3-----3-----3---------3-----3---|
G|-----0-----0-----0-----0-----0-----0---------0-----0---|
D|-------------------------------------------------------| x4
A|--------------3-----3-----2-----2----------------------|
E|--0-----0----------------------------(2)-3------3------|

I have a song in my heart
And just like life it has a middle, an end, and a start
And who knows if Iím on the path if Iím walking in the dark?
I have a song in my heart


Pre-Chorus:
   C
e|------------------------------------------------------------|
B|-----1-------1-----1-------1-----1----------1----------1----|
G|-----0-------0-----0-------0-----0----------0----------0----|
D|--------0h2-----------0h2-----------0h2-----------0h2-------|
A|--3-------------3-------------3----------3-----3------------|
E|------------------------------------------------------------|

   G* (320010)
e|---------------------------------------------------|
B|-----1-----1-----1-----1-----1-----1-----1-----1---|
G|-----0-----0-----0-----0-----0-----0-----0-----0---|
D|---------------------------------------------------|
A|--------2-----------2-----------2-----------2------|
E|--3-----------3-----------3-----------3------------|

Iím happy just to float

   C
e|------------------------------------------------------------|
B|-----1-------1-----1-------1-----1----------1----------1----|
G|-----0-------0-----0-------0-----0----------0----------0----|
D|--------0h2-----------0h2-----------0h2-----------0h2-------|
A|--3-------------3-------------3----------3-----3------------|
E|------------------------------------------------------------|

   G*                       Gmaj7 (054030)
e|----------------------------------------------------|
B|-----1-----1-----1-----1-----3-------3-----3--------|
G|-----0-----0-----0-----0-----0-------0-----0--------|
D|--------------------------------0h4-----------0h4---|
A|--------2-----------2-----5-------------5-----------|
E|--3-----------3-------------------------------------|

Wherever this river flows


Chorus:

    C
e|------------------------------------------------------|
B|-----1-----1-----1-----1-----1-------1-----1-------1--|
G|-----0-----0-----0-----0-----0-------0-----0-------0--|
D|--------2-----------0-----------0h2-----------0h2-----|
A|--3-----------3-----------3-------------3-------------|
E|------------------------------------------------------|

    G*                      Gmaj7
e|----------------------------------------------------|
B|-----1-----1-----1-----1-----3-------3-----3--------|
G|-----0-----0-----0-----0-----0-------0-----0--------|   x2
D|--------------------------------0h4-----------0h4---|
A|--------2-----------2-----5-------------5-----------|
E|--3-----------3-------------------------------------|

Iím just finding my feet, pounding the street, hoping that someday it will come
And Iíve got to leave, write my own tragedies
Keep my old bridges there to burn

    C
e|------------------------------------------------------|
B|-----1-----1-----1-----1-----1-------1-----1-------1--|
G|-----0-----0-----0-----0-----0-------0-----0-------0--|
D|--------2-----------0-----------0h2-----------0h2-----|
A|--3-----------3-----------3-------------3-------------|
E|------------------------------------------------------|

   G*          f#/maj7     Em         
e|-------------------------------------------------------------------------|
B|-----1-----1-----1-----1-----1-----1-----1-----0-----0-----1-------------|
G|-----0-----0-----0-----0-----0-----0-----0-----------0-----0-------------|            
D|-------------------------------------------------------------------------|   
A|--------2-----------2-----------2-----------2-----------2----------------| 
E|--3-----------2-----------0-----------0-----------0----------------------|

Leave all doors open, I donít know if Iíll return

   Cadd9       G
e|----------------------------------------------------|
B|-----1-----1-----1-----1-----1-----1-----0-----0----|
G|-----0-----0-----0-----0-----0-----0-----------0----|
D|----------------------------------------------------|
A|--3-----3-------------------------------------------|
E|--------------3-----3-----3-----3-----3-----3-------|

Iím out on my own 


   Cadd9       G
e|----------------------------------------------------|
B|-----1-----1-----1-----1-----1-----1-----0-----1----|
G|-----0-----0-----0-----0-----0-----0-----------0----|
D|----------------------------------------------------|
A|--3-----3-------------------------------------------|
E|--------------3-----3-----3-----3-----3-----3-------|

Heading out on my own


Intro again

Verse 3:
All of the faces I have seen,
Are lacking kindness and familiarity
And all of the eyes I have known have gone cold and turned to stone
All of the faces I have known


Pre-Chorus: (same as before)
Iím happy just to float
Wherever this rive goes

Chorus: (same as before)
Iím just finding my feet, pounding the street, hoping that someday it will come
And Iíve got to leave, write my own tragedies
Keep my old bridges there to burn
Leave all doors open, I donít know if Iíll return
Iím out on my own
Heading out on my own


e|---------------------------|
B|---------------------------|
G|---------------------------|
D|---------------------------| x2
A|--0----2----3---------5----|
E|-----------------3---------|

Itís not the end
No itís just the change
My worldís gone cold
And my lifeís turned grey
I need some shelter through my darkest days
I know Iíll be back some day 


Chorus 1: (same)
Iím just finding my feet, pounding the street, hoping that someday it will come
And Iíve got to leave, write my own tragedies
Keep my old bridges there (stop here)

Chorus 2: (same)
Iím just finding my feet, pounding the street, hoping that someday it will come
And Iíve got to leave, write my own tragedies
Keep my old bridges there to burn
Leave all doors open, I donít know if Iíll return
Iím out on my own
Heading out on my own

Iím out on my own
Heading out on my own



************************************

| /   slide up
| \   slide down
| h   hammer-on
| p   pull-off
| ~   vibrato
| +   harmonic
| x   Mute note
| b   Bend
| pb  Pre-bend
| br  Bend release
| pbr Pre-bend release
| brb Bend release bend

************************************
Tap to rate this tab
 
# A B C D E F G H I J K L M N O P Q R S T U V W X Y Z