Song name
# A B C D E F G H I J K L M N O P Q R S T U V W X Y Z

Gabrielle Aplin - Mountains tab

-------------------------------------------------------------------------------
                        Mountains Ė Gabrielle Aplin
-------------------------------------------------------------------------------
Tabbed by: Neil Wicker
Email: http://www.youtube.com/user/NeilWickerMusic

Tuning: Standard 

Capo 7 (all notes relative to capo)

Intro:

e|--------------------|--------------------|--------------------|
B|--1--------1--------|--1--------1--------|--0--------0--------|
G|-----0--------0-----|-----0--------0-----|-----0--------0-----|
D|--------2--------2--|--------2--------2--|--------0--------0--|
A|--0--------0--------|--3--------3--------|--------------------|
E|--------------------|--------------------|--3--------3--------|

e|--------------------|
B|--1--------1--------|
G|-----0--------0-----|
D|--------0--------0--|   x2
A|--------------------|
E|--1--------1--------|

Verse 1: (same as intro)
You wrote me notes on paper bags 
you strolled the roads as I turned back 
Air was calm the sky was black 
You wrote a list of things I lack

Pre-Chorus:

e|--------------------|--------------------|--------------------|
B|--1--------1--------|--1--------1--------|--0--------0--------|
G|-----0--------0-----|-----0--------0-----|-----0--------0-----|
D|--------2--------2--|--------0--------2--|--------0--------0--|
A|--0--------0--------|--2--------3--------|--------------------|
E|--------------------|--------------------|--3--------3--------|

e|--------------------|
B|--1--------1--------|
G|-----0--------0-----|
D|--------0--------0--|   
A|--------------------|
E|--1--------1--------|

Weíve come to realize 

e|-----------------------------|-----------|
B|--1--------1--------1--------|--0--------|
G|-----0--------0--------0-----|-----0-----|
D|--------2--------0--------2--|--------0--|
A|--0--------2--------3--------|-----------|
E|-----------------------------|--3--------|

e|--------------------|--------------------------------------|
B|--1--------1--------|--3--------3--------3--------3--------|
G|-----0--------0-----|-----0--------0--------0--------0-----|
D|--------0--------0--|--------0--------0--------0--------0--|
A|--------------------|--------------------------------------|
E|--1--------1--------|--3--------3--------3--------3--------|


We've opened up our eyes


Chorus:

e|--------------------------------------|--------------------------------------|
B|--1--------1--------1--------1--------|--0--------0--------0--------0--------|
G|-----0--------0--------0--------0-----|-----0--------0--------0--------0-----|
D|--------2--------2--------2--------2--|--------0--------0--------0--------0--|
A|--3--------3--------3--------3--------|--------------------------------------|
E|--------------------------------------|--3--------3--------3--------3--------|

e|--------------------------------------|--------------------------------------|
B|--1--------1--------1--------1--------|--1--------1--------1--------1--------|
G|-----0--------0--------0--------0-----|-----0--------0--------0--------0-----|   
D|--------2--------2--------2--------2--|--------0--------0--------0--------0--|
A|--0--------0--------0--------0--------|--------------------------------------|
E|--------------------------------------|--1--------1--------1--------1--------|

e|--------------------------------------|--------------------------------------|
B|--1--------1--------1--------1--------|--0--------0--------0--------0--------|
G|-----0--------0--------0--------0-----|-----0--------0--------0--------0-----|
D|--------2--------2--------2--------2--|--------0--------0--------0--------0--|
A|--3--------3--------3--------3--------|--------------------------------------|
E|--------------------------------------|--3--------3--------3--------3--------|

e|--------------------------------------|--------------------------------------|
B|--1--------1--------1--------1--------|--1--------1--------3--------3--------|
G|-----0--------0--------0--------0-----|-----0--------0--------0--------0-----|   
D|--------2--------2--------2--------2--|--------0--------0--------0--------0--|
A|--0--------0--------0--------0--------|--------------------------------------|
E|--------------------------------------|--1--------1--------3--------3--------|
 
Youíre a mountain I can't climb yet
And I'm a painting but Youíre blinded

e|-----------------------------|-----------|
B|--1--------1--------1--------|--0--------|
G|-----0--------0--------0-----|-----0-----|
D|--------2--------0--------2--|--------0--|
A|--0--------2--------3--------|-----------|
E|-----------------------------|--3--------|

e|--------------------|--------------------|
B|--1--------1--------|--3--------3--------|
G|-----0--------0-----|-----0--------0-----|
D|--------0--------0--|--------0--------0--|   x6
A|--------------------|--------------------|
E|--1--------1--------|--3--------3--------|


Oh ohh ohh 

Always have 2 justify how my tongue dances
We're barely getting by on taking chances 
And we come to realize 
Itís us that we despise 

Chorus: (same as before)
Youíre a mountain I can't climb yet 
And I'm a painting but youíre blinded

Ending:

e|-----------------------------|-----------|
B|--1--------1--------1--------|--0--------|
G|-----0--------0--------0-----|-----0-----|
D|--------2--------0--------2--|--------0--|
A|--0--------2--------3--------|-----------|
E|-----------------------------|--3--------|

e|--------------------|--------------------|
B|--1--------1--------|--3--------3--------|
G|-----0--------0-----|-----0--------0-----|
D|--------0--------0--|--------0--------0--|   x6
A|--------------------|--------------------|
E|--1--------1--------|--3--------3--------|

Ohh oh oh

We come to realize 
Itís us that we despise 


************************************

| /   slide up
| \   slide down
| h   hammer-on
| p   pull-off
| ~   vibrato
| +   harmonic
| x   Mute note
| b   Bend
| pb  Pre-bend
| br  Bend release
| pbr Pre-bend release
| brb Bend release bend

************************************
Tap to rate this tab
 
# A B C D E F G H I J K L M N O P Q R S T U V W X Y Z