Song name
# A B C D E F G H I J K L M N O P Q R S T U V W X Y Z

Gabrielle Aplin - Dont Say You Love Me tab

First tab, sorry if it's wrong!

tuning- DADF#AD  (open D)
capo 4

intro/verses                              
D |-----------------------------------|
A |----6---6---4---4---9---9---8---8--|
F#|----0---0---0---0---0---0---0---0--|
D |-----------------------------------| 
A |--3---3---2---2---8---8---5---5----|
D |-----------------------------------|

chorus
D |-----------------------------------|
A |----6---6---6---6---6---6---6---6--|
F#|----0---0---0---0---0---0---0---0--|
D |-----------------------------------| 
A |--3---3---3---3---3---3---3---3----|
D |-----------------------------------|

D |-------------------------------------------------------------------|
A |----6---6---6---6---4---4---4---4---8---8---8---8---9---9---9---9--|
F#|----0---0---0---0---0---0---0---0---0---0---0---0---0---0---0---0--|
D |-------------------------------------------------------------------| 
A |--3---3---3---3---2---2---2---2---5---5---5---5---8---8---8---8----|
D |-------------------------------------------------------------------|
Tap to rate this tab
 
# A B C D E F G H I J K L M N O P Q R S T U V W X Y Z