Song name
# A B C D E F G H I J K L M N O P Q R S T U V W X Y Z

Gabrielle Aplin - The Power Of Love tab

Intro basic 4/4 timing 
----------|---------|---------|---------|
-----3----|-----3---|-----0---|-----0---|
-----4----|-----4---|-----0---|-----0---|
---4---4--|---4---4-|---0---0-|---0---0-|
-2--------|-2-------|---------|---------|
----------|---------|-3-------|-3-------|

vers

----------|---------|---------|---------|
----------|---------|-----0---|-----0---|
-----2----|-----2---|-----0---|-----0---|
-----4----|-----4---|---0---0-|---0---0-|
---4---4--|---4---4-|---------|--------||
-2--------|-2-------|-3-------|-3----|--|

Thats basically it... 
Tap to rate this tab
 
# A B C D E F G H I J K L M N O P Q R S T U V W X Y Z