Song name
# A B C D E F G H I J K L M N O P Q R S T U V W X Y Z

Gabrielle Aplin - The Power Of Love tab

This is based on another tab I saw, but more of the song, because the chords change.
I pluck the first note with my thumb, second with my index finger, then the two notes at 
the same time with my third and fourth fingers, and then the second with my index again...



INTRO:
    Bm                   G
----------|---------|---------|---------|
-----3----|-----3---|-----0---|-----0---|
-----4----|-----4---|-----0---|-----0---|
---4---4--|---4---4-|---0---0-|---0---0-|
-2--------|-2-------|---------|---------|
----------|---------|-3-------|-3-------|

"Ahhhh, mmmmmm" bit:
     Bm                  G
----------|---------|---------|---------|
-----3----|-----3---|-----0---|-----0---|
-----4----|-----4---|-----0---|-----0---|
---4---4--|---4---4-|---0---0-|---0---0-|
-2--------|-2-------|---------|---------|
----------|---------|-3-------|-3-------|    [x2]

VERSE "Dreams are like angels.."
     Bm                  G
-----3----|-----3---|-----0---|-----0---|
-----4----|-----4---|-----0---|-----0---|
---4---4--|---4---4-|---0---0-|---0---0-|
-2--------|-2-------|---------|---------|
----------|---------|-3-------|-3-------|

   F#m                   G         A
----------|---------|---------|---------|
-----2----|-----2---|-----0---|-----2---|
-----2----|-----2---|-----0---|-----2---|
---4---4--|---4---4-|---0---0-|---2---2-|
----------|---------|---------|-0-------|
-2--------|-2-------|-3-------|---------|      [x2]


CHORUS "The power of love..."

    Bm                   G
-----3----|-----3---|-----0---|-----0---|
-----4----|-----4---|-----0---|-----0---|
---4---4--|---4---4-|---0---0-|---0---0-|
-2--------|-2-------|---------|---------|
----------|---------|-3-------|-3-------|

    F#m                  G
----------|---------|---------|---------|
-----2----|-----2---|-----0---|-----0---|
-----2----|-----2---|-----0---|-----0---|
---4---4--|---4---4-|---0---0-|---0---0-|
----------|---------|---------|---------|
-2--------|-2-------|-3-------|-3-------|

     A                   G
----------|---------|---------|---------|
-----2----|-----2---|-----0---|-----0---|
-----2----|-----2---|-----0---|-----0---|
---2---2--|---2---2-|---0---0-|---0---0-|
-0--------|-0-------|---------|---------|
----------|---------|-3-------|-3-------|

    F#m                  G         A
----------|---------|---------|---------|
-----2----|-----2---|-----0---|-----2---|
-----2----|-----2---|-----0---|-----2---|
---4---4--|---4---4-|---0---0-|---2---2-|
-2--------|-2-------|---------|-0-------|
----------|---------|-3-------|---------|


VERSE 2 ... (same as v1)

CHORUS 2 ... (same as c1)
Tap to rate this tab
# A B C D E F G H I J K L M N O P Q R S T U V W X Y Z