Song name
# A B C D E F G H I J K L M N O P Q R S T U V W X Y Z

Gabrielle Aplin - Please Dont Say You Love Me tab

Standard Tuning
Capo 4


Intro/Verses                              
e |-----------------------------------|
B |----5---5---3---3---8---8---7---7--|
G |----0---0---0---0---0---0---0---0--|
D |-----------------------------------| 
A |--3---3---2---2---7---7---5---5----|
E |-----------------------------------|

Pre-chorus
e |-----------------------------------|
B |----5---5---5---5---5---5---5---5--|
G |----0---0---0---0---0---0---0---0--|
D |-----------------------------------| 
A |--3---3---3---3---3---3---3---3----|
E |-----------------------------------|

Chorus
e |-------------------------------------------------------------------|
B |----5---5---5---5---3---3---3---3---7---7---7---7---8---8---7---7--|
G |----0---0---0---0---0---0---0---0---0---0---0---0---0---0---0---0--|
D |-------------------------------------------------------------------| 
A |--3---3---3---3---2---2---2---2---5---5---5---5---7---7---5---5----|
E |-------------------------------------------------------------------|

Or, for the chorus you can play this:
e |-------------------------------------------------------------------|
B |----5---5---5---5---3---3---3---3---7---7---7---7---8---8---8---8--|
G |----0---0---0---0---0---0---0---0---0---0---0---0---0---0---0---0--|
D |-------------------------------------------------------------------| 
A |--3---3---3---3---2---2---2---2---5---5---5---5---7---7---7---7----|
E |-------------------------------------------------------------------|

I don't know the "fools rush in" part yet, sorry :)
Sorry if anything's wrong!
( I posted two other tabs and realised they're wrong, so I'm pretty sure this is right :) )
Tap to rate this tab
# A B C D E F G H I J K L M N O P Q R S T U V W X Y Z