Song name
# A B C D E F G H I J K L M N O P Q R S T U V W X Y Z

Gabrielle Aplin - Please Dont Say You Love Me tab

-------------------------------------------------------------------------------
                             Please Don't Say You Love Me - Gabrielle Aplin
-------------------------------------------------------------------------------
Tabbed by: Joe Hook

Standard tuning, capo 4

Intro/Verse 1:                              
e |-----------------------------------|
B |----5---5---3---3---8---8---7---7--|
G |----0---0---0---0---0---0---0---0--|
D |-----------------------------------| 
A |--3---3---2---2---7---7---5---5----|
E |-----------------------------------|
                       
            'Summer  comes,  winter
     fades...


Pre-chorus:
e |-------|
B |----5--|
G |----0--|
D |-------| 
A |--3----| 
E |-------|   (x8)


Chorus:
e |--------------------------------------------------------------------|
B |----5---5---5---5---3---3---3---3---7---7---7---7---8---8---7---7---|
G |----0---0---0---0---0---0---0---0---0---0---0---0---0---0---0---0---|
D |--------------------------------------------------------------------| 
A |--3---3---3---3---2---2---2---2---5---5---5---5---7---7---5---5-----|
E |--------------------------------------------------------------------|

    'Please...       love...         might...        back...


(Verse 2)

(Pre-Chorus)

(Chorus)


Bridge:
e|---------------------------------------------------------------------------|
B|----------8---8---8---8---8---8---8---8------------------------------------|
G|---------------------------------------------------------------------------|
D|-------------------------------------------0---0---0---0---0---0---0---0---|
A|--------5---5---5---5---5---5---5---5----2---2---2---2---2---2---2---2-----|
E|---------------------------------------------------------------------------|

'Fools rush in...                          before...

e|-----------------------------------------------------------------------0---|
B|-----------------------------------------------------------------------5---|
G|-----------------------------------------------------------------------0---|
D|----2---2---2---2---2---2---2---2----0---0---0---0---0---0---0---0-----0---|
A|--2---2---2---2---2---2---2---2----3---3---3---3---3---3---3---3-------3---|
E|-----------------------------------------------------------------------0---|
      
   down...                           more...                             for.'
                                                                        (strum)

Final Chorus (pluck simultaneously):
e|---------------------------------------------------------------------------|
B|--5--------3-------7---------8---------------------------------------------|
G|--0--------0-------0---------0---------------------------------------------|
D|---------------------------------------------------------------------------|
A|--3--------2-------5---------7---------------------------------------------|
E|---------------------------------------------------------------------------|

  'Please... love...  might... back...'   

(Chorus)
Tap to rate this tab
# A B C D E F G H I J K L M N O P Q R S T U V W X Y Z