Song name
# A B C D E F G H I J K L M N O P Q R S T U V W X Y Z

Gabrielle Aplin - Electric Feel tab

-------------------------------------------------------------------------------
                 Electric Feel - Gabrielle Aplin (MGMT Cover)
                 tabbed by Luke Robson
-------------------------------------------------------------------------------

I could see this was highly requested so here's a fairly easy tab I've come up with from 
watching Gabrielle Aplin's Cover here: https://www.youtube.com/watch?v=0MlflO5StHw

It's not going to be 100% accurate as it's not entirely clear in the video but I 
hope you enjoy it otherwise. 

h = hammer on
x = slap / tap strings
(_) = optional notes

Capo 5

Not much to learn as it's the same repeated pattern throughout, 
so I've just focused more on her finger picking. 
She varies this a little as she plays so just look out for the extra slaps or notes.

    C     Em   F          G     Em   F
E|-------------------x-|---------------------x-|
B|--0h1--------------x-|---------------------x-|
G|-----0----0--2---2-x-|----------0--2---(2)-x-|
D|--2-------2--3-----x-|-----0----2--3-------x-|
A|--3-----0----------x-|--0h2---0------------x-|
E|----------0--1-----x-|--3-------0--1-------x-|

C   ( 0 3 2 0 1 0 )
Em  ( 0 2 2 0 0 0 )
F   ( 1 3 3 2 1 1 )
G   ( 3 2 0 0 3 3 )
You're Berry Welcome x
Tap to rate this tab
# A B C D E F G H I J K L M N O P Q R S T U V W X Y Z