Song name
# A B C D E F G H I J K L M N O P Q R S T U V W X Y Z

Gabrielle Aplin - Please Dont Say You Love Me tab

Most of the tabs for this song were quite good, but I noticed the bridge was almost 
always missing. So I decided to re-tab it all, to include the bridge. Enjoy.~

-Standard Tuning
-Capo 4


Intro/Verses
e |-----------------------------------|
B |----5---5---3---3---8---8---7---7--|
G |----0---0---0---0---0---0---0---0--|
D |-----------------------------------|
A |--3---3---2---2---7---7---5---5----|
E |-----------------------------------|

Pre-chorus
e |-----------------------------------|
B |----5---5---5---5---5---5---5---5--|
G |----0---0---0---0---0---0---0---0--|
D |-----------------------------------|
A |--3---3---3---3---3---3---3---3----|
E |-----------------------------------|

Chorus
e |-------------------------------------------------------------------|
B |----5---5---5---5---3---3---3---3---7---7---7---7---8---8---7---7--|
G |----0---0---0---0---0---0---0---0---0---0---0---0---0---0---0---0--|
D |-------------------------------------------------------------------|
A |--3---3---3---3---2---2---2---2---5---5---5---5---7---7---5---5----|
E |-------------------------------------------------------------------|

Bridge
e |-------------------------------------------------------------------|
B |----5---5---5---5---5---5---5---5---8---8---8---8---8---8---8---8--|
G |----0---0---0---0---0---0---0---0---0---0---0---0---0---0---0---0--|
D |-------------------------------------------------------------------|
A |--3---3---3---3---3---3---3---3---5---5---5---5---5---5---5---5----|
E |-------------------------------------------------------------------|

e |-------------------------------------------------------------------|
B |----3---3---3---3---3---3---3---3---0---0---0---0---0---0---0---0--|
G |----0---0---0---0---0---0---0---0---1---1---1---1---1---1---1---1--|
D |------------------------------------2---2---2---2---2---2---2---2--|
A |-------------------------------------------------------------------|
E |--3---3---3---3---2---2---2---2---0---0---0---0---0---0---0---0----|

e |--------------------------------------------------------------------|
B |---0---0---0---0---0---0---0---0---5---5---5---5---7~---------------|
G |---1---1---1---1---1---1---1---1---0---0---0---0---0~---------------|
D |---2---2---2---2---2---2---2---2------------------------------------|
A |-----------------------------------3---3---3---3---5~---------------|
E |-0---0---0---0---0---0---0---0--------------------------------------|
Tap to rate this tab
 
# A B C D E F G H I J K L M N O P Q R S T U V W X Y Z