Song name
# A B C D E F G H I J K L M N O P Q R S T U V W X Y Z

Gabrielle Aplin - Evaporate tab

Gabrielle Aplin- Evaporate Tab 
Drop D Tuning- Capo 2nd Fret
Very easy to learn you use 2 strings for the whole song.
Listen to the song to hear the changes they are very distinct.
Please comment if you feel it is not accurate did it by ear!
Hope you enjoy!


Intro/Verse

E-------------------------------------------------------------------------|
B-------------------------------------------------------------------------|
G-------------------------------------------------------------------------|
D--0-0-0-0-0-0-0-0-0-0-0-0-0-0-0-0-0-0-0-0-0-0-0-0-0-0-0-0-0-0-0-0-0-0-0--|        
A-------------------------------------------------------------------------|
D-0-0-0-0-0-0-0-5-5-0-0-0-0-0-0-0-7-7-9-9-9-9-5-5-5-5-0-0-0-0-0-0-0-5-5---|


E-------------------------------------------------------------------------|
B-------------------------------------------------------------------------|
G-------------------------------------------------------------------------|
D--0-0-0-0-0-0-0-0-0-0-0-0-0-0-0-0-0-0-0-0-0-0-0-0-0-0-0-0-0-0-0-0-0-0-0--|        
A-------------------------------------------------------------------------|
D-0-0-0-0-0-0-0-5-5-0-0-0-0-0-0-0-7-7-9-9-9-9-5-5-5-5-0-0-0-0-0-0-0-5-5---|
Flesh and bone wrapped up in skin
Kept alive by oxygen
But right now breathing is so tough.

E-------------------------------------------------------------------------|
B-------------------------------------------------------------------------|
G-------------------------------------------------------------------------|
D--0-0-0-0-0-0-0-0-0-0-0-0-0-0-0-0-0-0-0-0-0-0-0-0-0-0-0-0-0-0-0-0-0-0-0--|        
A-------------------------------------------------------------------------|
D-0-0-0-0-0-0-0-5-5-0-0-0-0-0-0-0-7-7-9-9-9-9-5-5-5-5-0-0-0-0-0-0-0-0-0---|
They say they know what I can feel
And time will find a way to heal
But right now time is not enough.

Pre-Chorus

E---------------------------------|
B---------------------------------|
G---------------------------------|
D--0-0-0-0-0-0-0-0-0-0-0-0-0-0-0-0|        
A---------------------------------|
D-4-4-5-5-5-5-5-5-4-4-5-5-5-5-5-5-|
But then I feel you soaking in
I can feel the blood rushing again
Chorus


E-------------------------------------------------------------------------|
B-------------------------------------------------------------------------|
G-------------------------------------------------------------------------|
D--0-0-0-0-0-0-0-0-0-0-0-0-0-0-0-0-0-0-0-0-0-0-0-0-0-0-0-0-0-0-0-0-0-0-0-0|        
A-------------------------------------------------------------------------|
D-7-7-7-7-5-5-5-5-0-0-0-0-7-7-7-7-9-9-9-9-5-5-5-5-0-0-0-0-7-7-7-7-9-9-9-9-|
When its too hard and too late, 
When Im too tired to run away 
When it cant stay the way it was, 
I need you cause, You smash 
E----------------------------------------------------------|
B----------------------------------------------------------|
G----------------------------------------------------------|
D--0-0-0-0-0-0-0-0-0-0-0-0-0-0-0-0-0-0-0-0-0-0-0-0-0-0-0-0-|        
A----------------------------------------------------------|
D-5-5-5-5-0-0-0-0-7-7-7-7-9-9-9-9-5-5-5-5-0-0-0-0-7-7-7-7--|
The trouble I cant take
And all the pieces of the break 
Evaporate, evaporate, evaporate

Verse:

E-------------------------------------------------------------------------|
B-------------------------------------------------------------------------|
G-------------------------------------------------------------------------|
D--0-0-0-0-0-0-0-0-0-0-0-0-0-0-0-0-0-0-0-0-0-0-0-0-0-0-0-0-0-0-0-0-0-0-0--|        
A-------------------------------------------------------------------------|
D-0-0-0-0-0-0-0-5-5-0-0-0-0-0-0-0-7-7-9-9-9-9-5-5-5-5-0-0-0-0-0-0-0-0-0---|

I dont know how the words you say 
Hold a thousands times more weight
Than any word Ive heard before

Pre-Chorus-2

E------------------------------------------------------------------|
B------------------------------------------------------------------|
G------------------------------------------------------------------|
D--0-0-0-0-0-0-0-0-0-0-0-0-0-0-0-0-0-0-0-0-0-0-0-0-0-0-0-0-0-0-0-0-|       
A------------------------------------------------------------------|
D-4-4-5-5-5-5-5-5-4-4-9-9-7-7-7-7-4-4-5-5-5-5-5-5-4-4-9-9-7-7-7-7--

But then I feel you soaking in, 
I can feel the blood rushing again 
Through my veins, I can feel the pulse begin to race 

Chorus:

E-------------------------------------------------------------------------|
B-------------------------------------------------------------------------|
G-------------------------------------------------------------------------|
D--0-0-0-0-0-0-0-0-0-0-0-0-0-0-0-0-0-0-0-0-0-0-0-0-0-0-0-0-0-0-0-0-0-0-0-0|        
A-------------------------------------------------------------------------|
D-7-7-7-7-5-5-5-5-0-0-0-0-7-7-7-7-9-9-9-9-5-5-5-5-0-0-0-0-7-7-7-7-9-9-9-9-|

When its too hard and too late, 
When Im too tired to run away 
When it cant stay the way it was, 
I need you cause, You smash 
E----------------------------------------------------------|
B----------------------------------------------------------|
G----------------------------------------------------------|
D--0-0-0-0-0-0-0-0-0-0-0-0-0-0-0-0-0-0-0-0-0-0-0-0-0-0-0-0-|        
A----------------------------------------------------------|
D-5-5-5-5-0-0-0-0-7-7-7-7-9-9-9-9-5-5-5-5-0-0-0-0-0-0-0-0--|

The trouble I cant take
And all the pieces of the break 
Evaporate, evaporate, evaporate

Bridge:

E-----------------------------------------------------------------|
B-----------------------------------------------------------------|
G-----------------------------------------------------------------|
D--0-0-0-0-0-0-0-0-0-0-0-0-0-0-0-0-0-0-0-0-0-0-0-0-0-0-0-0-0-0-0-0|        
A-----------------------------------------------------------------|
D-4-4-9-9-7-7-5-5-4-4-9-9-7-7-5-5-4-4-9-9-7-7-5-5-4-4-9-9-7-7-5-5-|

Run, run, watch them run away
Fly, fly, make them fly away
Small Pause

Chorus:

E-------------------------------------------------------------------------|
B-------------------------------------------------------------------------|
G-------------------------------------------------------------------------|
D--0-0-0-0-0-0-0-0-0-0-0-0-0-0-0-0-0-0-0-0-0-0-0-0-0-0-0-0-0-0-0-0-0-0-0-0|        
A-------------------------------------------------------------------------|
D-7-7-7-7-5-5-5-5-0-0-0-0-7-7-7-7-9-9-9-9-5-5-5-5-0-0-0-0-7-7-7-7-9-9-9-9-|

When its too hard and too late, 
When Im too tired to run away 
When it cant stay the way it was, 
I need you cause, You smash 

E--------------------------------------------------|
B--------------------------------------------------|
G--------------------------------------------------|
D--0-0-0-0-0-0-0-0-0-0-0-0-0-0-0-0-0-0-0-0-0-0-0-0-|        
A--------------------------------------------------|
D-5-5-5-5-0-0-0-0-7-7-7-7-9-9-9-9-5-5-5-5-0-0-0-0--|

The trouble I cant take
And all the pieces of the break 
Evaporate, evaporate, evaporate

Outro/Ending

E----------|
B----------|
G----------|
D----------|        
A----------|
D-4-9-5-7--|
Evaporate, evaporate, evaporate


Some live versions she plays it different but Im positive that this is how 
she plays it in the album.
Tap to rate this tab
# A B C D E F G H I J K L M N O P Q R S T U V W X Y Z