Song name
# A B C D E F G H I J K L M N O P Q R S T U V W X Y Z

Gabrielle Aplin - Please Dont Say You Love Me tab

Artist         :Gabrielle Aplin
Song           :Please Don't Say You Love Me
Album          :English Rain
Type           :Guitar Tab
What Part      :Bridge
Tab Difficulty :Intermediate
Tuning         :Standard
Capo           :5th Fret

(I know that this tab was labeled as "Please Don't Say You Love Me Solo", but this isn't
solo. Sorry if there's any confusion, but I just put the bridge over here.) So I tried
looking for a tab for this amazing song, but most of them didn't have a really good 
bridge, so I decided to find it out by ear, and share it with you guys :) I hope it's pretty
accurate, and I hope you guys like it!

Bridge:
e|---------------------------------|---------------------------------|
B|-------5-------5-------5-------5-|-------8-------8-------8-------8-|
G|---0-------0-------0-------0-----|---0-------0-------0-------0-----|
D|---------------------------------|---------------------------------|
A|-3---3---3---3---3---3---3---3---|-4---4---4---4---4---4---4---4---|
E|---------------------------------|---------------------------------|
   back...                 fools.. | in..

e|-----------------|-----------------|---------------------------------|
B|-------3-------3-|-------3-------3-|---------------------------------|
G|---0-------0-----|---0-------0-----|-------1-------1-------1-------1-|
D|-----------------|-----------------|---------------------------------|
A|-----------------|-----------------|---2-------2-------2-------2-----|
E|-3---3---3---3---|-2---2---2---2---|-0---0---0---0---0---0---0---0---|
 before..          | time..          | down..

e|---------------------------------|-------0-------0-|-----|
B|---1-------1-------1-------1-----|-----1-------1---|--7--|
G|-------2-------2-------2-------2-|---0-------0-----|--0--|
D|---------------------------------|-----------------|-(0)-|
A|---------------------------------|-3-------3-------|--5--|
E|-0---0---0---0---0---0---0---0---|-----------------|-----|
   more..                          | for..           |     |
Tap to rate this tab
# A B C D E F G H I J K L M N O P Q R S T U V W X Y Z