Song name
# A B C D E F G H I J K L M N O P Q R S T U V W X Y Z

Gabrielle Aplin - Please Dont Say You Love Me tab

Standard tuning - capo 5

I've just looked at a few tabs of this brilliant song and parts of it are off. 
Here's the version I play based on her acoustic studio sessions.

Intro: x4
E|--------------------------------------------------|
B|-----5-----5-----3-----3-----8-----8-----7-----7--|
G|-----0-----0-----0-----0-----0-----0-----0-----0--|
D|--------------------------------------------------|
A|--3-----3-----------------7-----7-----5-----5-----|
E|--------------3-----3-----------------------------|

Verse 1 & 2: x9
E|--------------------------------------------------|
B|-----5-----5-----3-----3-----8-----8-----7-----7--|
G|-----0-----0-----0-----0-----0-----0-----0-----0--|
D|--------------------------------------------------|
A|--3-----3-----------------7-----7-----5-----5-----|
E|--------------3-----3-----------------------------|

Pre-Chorus: (everything falls into place...)
E|--------------------------------------------------|
B|-----------5-----------5-----------5-----------5--|
G|-----0-----------0-----------0-----------0--------|
D|--------0-----------0-----------0-----------0-----|
A|--3-----------3-----------3-----------3-----------|
E|--------------------------------------------------|

Chorus: x3 (then next part for last line)
E|--------------------------------------------------------------------------------------------------|
B|-----------5-----------5-----------3-----------3-----------7-----------7-----------8-----------7--|
G|-----0-----------0-----------0-----------0-----------0-----------0-----------0-----------0--------|
D|--------0-----------0-----------0-----------0-----------0-----------0-----------0-----------0-----|
A|--3-----------3-----------------------------------5-----------5-----------7-----------5-----------|
E|--------------------------3-----------3-----------------------------------------------------------|

Last line of Chorus:
E|-------------------------------------------------------|
B|-----------5-----------5-----------3----------------7--|
G|-----0-----------0-----------0-----------0-----0-------|
D|--------0-----------0-----------0-----------0----------|
A|--3-----------3-------------------------------------5--|
E|--------------------------3-----------3----------------|

Verse + intro 3: x6
E|--------------------------------------------------|
B|-----5-----5-----3-----3-----8-----8-----7-----7--|
G|-----0-----0-----0-----0-----0-----0-----0-----0--|
D|--------------------------------------------------|
A|--3-----3-----------------7-----7-----5-----5-----|
E|--------------3-----3-----------------------------|

Pre-Chorus: (So let's not give the game away...)
E|--------------------------------------------------|
B|-----------5-----------5-----------5-----------5--|
G|-----0-----------0-----------0-----------0--------|
D|--------0-----------0-----------0-----------0-----|
A|--3-----------3-----------3-----------3-----------|
E|--------------------------------------------------|

Chorus 2: x3 (then next part for last line)
E|--------------------------------------------------------------------------------------------------|
B|-----------5-----------5-----------3-----------3-----------7-----------7-----------8-----------3--|
G|-----0-----------0-----------0-----------0-----------0-----------0-----------0-----------0--------|
D|--------0-----------0-----------0-----------0-----------0-----------0-----------0-----------0-----|
A|--3-----------3-----------------------------------5-----------5-----------7-----------2-----------|
E|--------------------------3-----------3-----------------------------------------------------------|

Last line of Chorus:
E|-------------------------------------------------------|
B|-----------5-----------5-----------3----------------7--|
G|-----0-----------0-----------0-----------0-----0-------|
D|--------0-----------0-----------0-----------0----------|
A|--3-----------3-------------------------------------5--|
E|--------------------------3-----------3----------------|

Bridge:                        (And fools...)                             (And I've been...)
E|--------------------------------------------------------------------------------------------------|
B|-----------5-----------5-----------5-----------5-----------8-----------8-----------8-----------8--|
G|-----0-----------0-----------0-----------0-----------0-----------0-----------0-----------0--------|
D|--------0-----------0-----------0-----------0-----------0-----------0-----------0-----------0-----|
A|--3-----------3-----------3-----------3-----------4-----------4-----------4-----------4-----------|
E|--------------------------------------------------------------------------------------------------|

   (Before...)         (This time...)       (Down...)                  ('Cause I think...)
E|-----------------------------------------------------------------------------------------------------|
B|-----------0-----------------------0-----------------------------------------------------------------|
G|-----0-----------0-----0-----2-----------2-----1-----------1-----------------------1-----------------|
D|-----------------------------------------------------2-----------2-----2-----0-----------0-----0-----|
A|--------2-----------2-----------0-----------0-----------2-----------2-----------2-----------2--------|
E|--3-----------3-----------2-----------2-----------0-----------0-----------0-----------0--------------|

     (More....)              (The thing...)            (for...)                       (Just...)
E|------------------------------------------------------------------------------------------|
B|-----------1-----------------------1-----------------------5-----------5------7--------3--|
G|-----2-----------2-----2-----2-----------2-----2-----0-----------0------------0--------0--|
D|--------2-----------2-----------2-----------------------0-----------0---------0--------0--|
A|--0-----------0-----------0-----------0-----2-----3-----------3---------------5--------2--|
E|------------------------------------------------------------------------------------------|

Chorus 3: (play each chord once and slow)

 (Please..) (Love me..) (Might not..)  (back.)
E|--------------------------------------------|--------------------------------------|
B|--5---------3-----------7-----------8-------|-----5--------3--------7--------8--7--|
G|--0---------0-----------0-----------0-------|-----0--------0--------0--------0--0--|
D|--0---------0-----------0-----------0-------|-----0--------0--------0--------0--0--|
A|--3---------------------5-----------7-------|-----3-----------------5--------7--5--|
E|------------3-------------------------------|--------------3-----------------------|


(There's no need...)
E|-----------------------------------------------------------------|
B|-----5------------3------------7------------8-----------7--------|
G|-----0------------0------------0------------------0-----------0--|
D|--------0------------0------------0------------0-----------0-----|
A|--3-------------------------5------------7-----------5-----------|
E|---------------3-------------------------------------------------|

E|-------------------------------------------------------------------------------|
B|-----------5-----------5-----------3-----------3-----------7-----------7----8--|
G|-----0-----------0-----------0-----------0-----------0-----------0----------0--|
D|--------0-----------0-----------0-----------0-----------0-----------0----------|
A|--3-----------3-----------------------------------5-----------5-------------7--|
E|--------------------------3-----------3-------------------------------------0--|

Chorus 4 + 5: x4
E|--------------------------------------------------------------------------------------------------|
B|-----------5-----------5-----------3-----------3-----------7-----------7-----------8-----------7--|
G|-----0-----------0-----------0-----------0-----------0-----------0-----------0-----------0--------|
D|--------0-----------0-----------0-----------0-----------0-----------0-----------0-----------0-----|
A|--3-----------3-----------------------------------5-----------5-----------7-----------5-----------|
E|--------------------------3-----------3-----------------------------------------------------------|

Ending lines: (Slower)

    (Please don't..)          (Love me....)           (Might not..)          (Back.)
E|-------------------------------------------------------------------------------|
B|-----------5-----------5-----------3-----------3-----------7-----------7----8--|
G|-----0-----------0-----------0-----------0-----------0-----------0----------0--|
D|--------0-----------0-----------0-----------0-----------0-----------0----------|
A|--3-----------3-----------------------------------5-----------5-------------7--|
E|--------------------------3-----------3-------------------------------------0--|

Hope you enjoy, any suggestions or comments welcome :) 

Phil
Tap to rate this tab
 
# A B C D E F G H I J K L M N O P Q R S T U V W X Y Z