Song name
# A B C D E F G H I J K L M N O P Q R S T U V W X Y Z

Gabrielle Aplin - I Love College Asher Roth Cover tab

So this is tabbed from Gabrielle Aplins 'I Love College' (Originally by Asher Roth) 
cover from youtube. It's a combination of both picking with your fingers (during the verses 
and intro) but in the Chorus' it is strumming twice per chord. and standard tuning.
Any comments or corrections welcome.

Link- https://www.youtube.com/watch?v=0QHKqm5C1Tw&list=PL48r7vpi20c6LKz8BBPS-q5nRRcwSanLm

Capo 4
Standard Tuning
-x- = Slap string
intro
e|--0h2--2-x-3----2-x--------0-x-3---2-x--------------|
B|--3----3-x-3----3-x--3--3--3-x-3---3-x--------------|
G|--2----4-x-0----2-x--3--3--4-x-0---2-x--------------|
D|--0----4-x-0----0-x--3--3--4-x-0---0-x--------------|
A|-------2-x-0h2----x--------2-x-0h2---x--------------|
E|-------2-x-3------x----------x-3-----x--------------|


Verses  (Also plucked twice after each chorus)
e|------0-x-3---2-x------------|
B|--3-3-3-x-3---3-x------------|
G|--3-3-4-x-0---2-x------------|
D|--3-3-4-x-0---0-x------------|
A|------2-x-0h2---x------------|
E|--------x-3-----x------------| x10



Chorus' (Strumming each Chord twice)
e|--0-2-0---2-------------|
B|--3-3-3---3-------------|
G|--3-4-0---2-------------|
D|--3-4-0---0-------------|
A|--0-2-0h2---------------|
E|--0-2-3-----------------| x5
Tap to rate this tab
# A B C D E F G H I J K L M N O P Q R S T U V W X Y Z