Song name
# A B C D E F G H I J K L M N O P Q R S T U V W X Y Z

Gabrielle Aplin - Best Song Ever tab

Best Song Ever - Gabrielle Aplin
A cover of the One Direction song from BBC Radio 1 Live Lounge.

Tabbed by: daferet33
Email Address: wferris33@hotmail.com  


Should be played in standard tuning with a capo on the second fret. All chords and 
notes here are relative to this capo. (Without the capo the main chords are D, A, and G)


Intro

e|------------------------------------------------|
B|------------1-----------1-----------1-----------|
G|----0---0-------0---0-------0---0-------0---0---|
D|----2-----2-----2-----2-----2-----2-----2-----2-| X2 
A|--3---3-------3---3-------3---3-------3---3-----|
E|------------------------------------------------|
 
Verse

e|------------------------------------------------|
B|------------1----------------------1------------|
G|----0---0-------0---0------0---0-------0---0----|
D|----2-----2-----2-----2----0-----0-----0-----0--| X4
A|--3---3-------3---3-----------------------------|
E|-------------------------3---3-------3---3------|

Pre-Chorus

e|------------------------------------------------|
B|------------1----------------------0------------|
G|----2---2-------2---2------0---0-------0---0----|
D|----3-----3-----3-----3----0-----0-----0-----0--| X2
A|------------------------------------------------|
E|--1---1-------1---1------3---3-------3---3------|

Chorus

e|------------------------------------------------|
B|------------------------------------0-----------|
G|----2---2---2---0---0---0---0---0-------0---0---|
D|----3-----3-----2-----2-----0-----0-----0-----0-| X3
A|--------------3---3-----------------------------|
E|--1---1-------------------3---3-------3---3-----|


e|----------------------------------------------------------------------|
B|------------------------------------0---------------------------------|
G|----2---2---2---0---0---0---0---0-------0---0-----0---0-----0---0-----|
D|----3-----3-----2-----2-----0-----0-----0-----0---0-----0---0-----0---|
A|--------------3---3---------------------------------------------------|
E|--1---1-------------------3---3-------3---3-----3---3-----3---3-----3-|


Then -
(With backing chords played on a Second guitar of C, G, and F):

Verse

Pre-Chorus

Chorus

Bridge - 
Strummed Chords alternating between C and F, and then ending on G. X2

Outro - 
Chorus repeated until the end.   


Hope you enjoy it! Comments and suggestions are always welcome!
Tap to rate this tab
# A B C D E F G H I J K L M N O P Q R S T U V W X Y Z