Song name
# A B C D E F G H I J K L M N O P Q R S T U V W X Y Z

Gabrielle Aplin - Best Song Ever tab

-------------------------------------------------------------------------------
                             BEST SONG EVER - Gabrielle Aplin
-------------------------------------------------------------------------------

BEST SONG EVER (LIVE LOUNGE) - GABRIELLE APLIN

Youtube link - https://www.youtube.com/watch?v=coq8ppTUoXY&feature=kp

Tuning: Open D - DADf#AD

Chords used (Basic names):

D  x50500
E  x70700
G  5x0500
A  7x0700
Bm 9x0800
D1 12x01200
D2 000300


INTRO x2

        D
D |-------------------------------0--|
A |---------0------------------------|
F#|---------------------5------------|  x 4
D |---------0----------------0-------|
A |--5-------------5-----------------| 
D |----------------------------------|


        E
D |-------------------------------0--|
A |---------0------------------------|
F#|---------------------7------------|  x 4
D |---------0----------------0-------|
A |--7-------------7-----------------|
D |----------------------------------|


VERSE x4

        D
D |-------------------------------0--|
A |---------0------------------------|
F#|---------------------5------------|  x 2
D |---------0----------------0-------|
A |--5-------------5-----------------| 
D |----------------------------------|


        E
D |-------------------------------0--|
A |---------0------------------------|
F#|---------------------7------------|  x 2
D |---------0----------------0-------|
A |--7-------------7-----------------|
D |----------------------------------|

 
Pre Chorus x2

        G
D |--------------------------------------------------------|
A |---------0---------------------0----------0-----------0-|
F#|---------------------0----------------------------------|
D |---------0----------------0---------------0-----------0-|
A |--------------------------------------------------------|
D |--5-------------4-------------------2-----------0-------|

        
        A
D |-------------------------------0--|
A |---------0------------------------|
F#|---------------------7------------|  x 2
D |---------0----------------0-------|
A |----------------------------------| 
D |--7-------------7-----------------|



Chorus x4

        G                                       D2          
D |-------------------------------0----------------------------------0--|
A |---------0----------------------------------0------------------------|
F#|---------------------5----------------------------------3------------|
D |---------0----------------0-----------------0----------------0-------|
A |---------------------------------------------------------------------|
D |--5-------------5---------------------0------------0-----------------|


        A
D |-------------------------------0----------------------------------0--|
A |---------0----------------------------------0------------------------|
F#|---------------------7----------------------------------7------------|
D |---------0----------------0-----------------0----------------0-------|
A |---------------------------------------------------------------------|
D |--7-------------7---------------------7------------7-----------------|



Verse 2 x4        (slightly different)


        G
D |-------------------------------0--|
A |---------0------------------------|
F#|---------------------5------------|  x 2
D |---------0----------------0-------|
A |----------------------------------| 
D |--5-------------5-----------------|


        A
D |-------------------------------0--|
A |---------0------------------------|
F#|---------------------7------------|  x 2
D |---------0----------------0-------|
A |----------------------------------|
D |--7-------------7-----------------|



Pre Chorus x2

        G
D |--------------------------------------------------------|
A |---------0---------------------0----------0-----------0-|
F#|---------------------0----------------------------------|
D |---------0----------------0---------------0-----------0-|
A |--------------------------------------------------------|
D |--5-------------4-------------------2-----------0-------|

        
        A
D |-------------------------------0--|
A |---------0------------------------|
F#|---------------------7------------|  x 2
D |---------0----------------0-------|
A |----------------------------------| 
D |--7-------------7-----------------|



Chorus x4

        G                                       D2          
D |-------------------------------0----------------------------------0--|
A |---------0----------------------------------0------------------------|
F#|---------------------5----------------------------------3------------|
D |---------0----------------0-----------------0----------------0-------|
A |---------------------------------------------------------------------|
D |--5-------------5---------------------0------------0-----------------|


        A
D |-------------------------------0----------------------------------0--|
A |---------0----------------------------------0------------------------|
F#|---------------------7----------------------------------7------------|
D |---------0----------------0-----------------0----------------0-------|
A |---------------------------------------------------------------------|
D |--7-------------7---------------------7------------7-----------------|


'Oh oh oh' part: strum x2

Bm   9x0800
G    5x0500
D1   12x01200
A    7x0700

Then strum each once:

G  5x0500
D2 000300
A  7x0700

Then to play out you can either keep strumming/picking those chords or you
can also use the pre-chorus fingerpicking part.

End on D2 0x0300
Tap to rate this tab
# A B C D E F G H I J K L M N O P Q R S T U V W X Y Z