Song name
# A B C D E F G H I J K L M N O P Q R S T U V W X Y Z

Gabrielle - Dreams tab

Here's the chords i like to use as it seems other tabs provided don't sound right played 
their own


E----0----------0----------0------------0-----------------------------]
B----2----------0----------0------------0-----------------------------]
G----2----------2----------2------------1-----------------------------]
D----0----------2----------4------------2-----------------------------]
A----x----------0----------4------------2-----------------------------]
E----x----------x----------x------------0-----------------------------]

While Playing the first chord i sometimes like to add a little of the melody as follows

E----x--------------------0-----------------------------------------]
B----2-----3------2-------------------------------------------------]
G----2--------------------------------------------------------------]
D----0--------------------------------------------------------------]
A----x--------------------------------------------------------------]
E----x--------------------------------------------------------------]

Youtube song for rythm.

I play a lot of acoustic covers of songs so if anyone has any request for acoustic 
tabs let me know.Im not great but i might be able to help.
Tap to rate this tab
 
# A B C D E F G H I J K L M N O P Q R S T U V W X Y Z