Song name
# A B C D E F G H I J K L M N O P Q R S T U V W X Y Z

Gackt - Longing tab

Hey guys well this is my first time submiting this and since this has been highly 
for all of those Fantasy Fantasy fans then here u go i figured out something highly similar to 
so i present Longing by Gackt
--------------------------------------------------------------------------

M= Palm Mute
H= Hammer down
T= Tap
W= Wammy bar
\= Slide down
/= Slide up
  Standered Tunning (E,A,D,G,B,E)         Tabed by: Shadow

Intro
                                                W-----|
|----------------------------------------------------------------|
|----------------------------------------------------------------|
|-4---4---4----6---6---6---7---7---7----9----9---99\10-----------|
|-4---4---4----6---6---6---7---7---7----9----9---99\10-----------|
|-2---2---2----4---4---4---5---5---5----7----7---77\8------------|
|--0---0---00---0---0---00--0---0---00----0---0------------------|
   m   m   mm   m   m   mm  m   m   mm    m   m


|----------------------------------------------------------------|
|----------------------------------------------------------------|
|-4---4---4----6---6---6---7---7---7----9----9---9--7--6---------|
|-4---4---4----6---6---6---7---7---7----9----9---9--7--6---------|
|-2---2---2----4---4---4---5---5---5----7----7---7--5--4---------|
|--0---0---00---0---0---00--0---0---00----0---0------------------|
   m   m   mm   m   m   mm  m   m   mm    m   m

Verse
                                                   Repeat (X2)
|---------------------------------------------------------|
|---------------------------------------------------------|
|---------------------------------------------------------|
|-22-22-22----22-22-22----22-22-22----22-22-22-22-2\5-----|
|-22-22-22----22-22-22----22-22-22----22-22-22-22-2\5-----|
|-00-00-00----00-00-00----00-00-00----00-00-00-00-0-------|

(Repeat Intro)

and from there im still figuring out the rest so give me about a weak XD well hope this 
u guys and happy Playing.

~Shadow~
Tap to rate this tab
# A B C D E F G H I J K L M N O P Q R S T U V W X Y Z