Song name
# A B C D E F G H I J K L M N O P Q R S T U V W X Y Z

Gagong Rapper - Kabet tab

Guitar 1
Intro/Chorus

e|--------------------------------------------------------|
B|------7--5--4--2------7--5--4--2--4--7~--2----2--4--7~--|
G|--4-4-------------4-------------------------4-----------|
D|--------------------------------------------------------|
A|--------------------------------------------------------|
E|--------------------------------------------------------|

e|--------------------------------------------------------|
B|--2----2--4---------------------------------------------|
G|-----4-------4~---------4--3--4--4--6--8--6--4--3--4----|
D|-----------------4--6~----------------------------------|
A|--------------------------------------------------------|
E|--------------------------------------------------------|

e|----------------------------|
B|----------------------------|
G|------4--6--8--6--4--3--4~--|
D|--4-------------------------|
A|----------------------------|
E|----------------------------|

Verse

e|----------------------4--2-----4--2-----4---4--2-|
B|-----2--4--7--7~---------------------------------|
G|--4-----------------4--------4--------4---4------|
D|-------------------------------------------------|
A|-------------------------------------------------|
E|-------------------------------------------------|

e|--2-------------------------------------------------------|
B|-----------5--4--2-----9--7~--7---------------------------|
G|----4~--4-----------4-------------4~~---6--8--6--4-3-4~~~-|
D|----------------------------------------------------------|
A|----------------------------------------------------------|
E|----------------------------------------------------------|

Guitar 2 / Bass
Goes on through the whole song. Repeat the notes multiple times.

G|-------------------------------------|
D|--9~~--8~~--6~~--4~~--6~~--8~~--9~~--|
A|-------------------------------------|
E|-------------------------------------|

tabbed by Razi
Tap to rate this tab
 
# A B C D E F G H I J K L M N O P Q R S T U V W X Y Z