Guitaretab - guitar tabs
Song name
# A B C D E F G H I J K L M N O P Q R S T U V W X Y Z

Gaia Mesiah - San Pedro tab

Band: Gaia Mesiah
Song: San Pedro
Album: Ocean (2005)
Guitar: Acoustic
Tuning: EADGBE
Tabber: Erik

I don't understand anything of this Chezch song, but it's great!

Intro + Verses
E------------------------6-5--5--5-----------|
A--6/7-7-5-7--6/7-7-5-7--8-7--7--7-----------|
D--8/9-9-7-9--8/9-9-7-9--8-7--7--7-----------|
G--8/9-9-7-9--8/9-9-7-9----------------------|
B--------------------------------------------|
E-----------------------------------7-7-6-7--|
[ Tab from: http://www.guitaretab.com/g/gaia-mesiah/79070.html ]
Chorus:
Em		    Bm				A
Uz me vítá hvezdny reggea mordry blues a Bozi chor
Em		    Bm					   A
Lasko pribal Jamese Browna feels like knockin' on heavens door

Interlude:
E---------------|
A---------------|
D---------------|
G---------------|
B---------10-8--|
E--7-10-7-------|

Chorus
Em
Fourtyseven, Fourty-four-seven,
A		G
Fourtyseven, Fourty-four-seven


Used Chords:
   Em  Bm  A   G
E------7---5---3--|
A--7---9---7---5--|
D--9---9---7---5--|
G--9---7---6---4--|
B--8---7---5---3--|
E--7---7---5---3--|

That's all folks!

http://www.gaiamesiah.com
Related for San Pedro tab
Advertisement will be closed in 10 seconds