Song name
# A B C D E F G H I J K L M N O P Q R S T U V W X Y Z

Gajendra Verma - Emptiness tab

   F                     Am                     Dm
e--------------------------------------------------1----------1------|
B------1----------1----------1----------1--------3---3------3---3----|
G----2---2------2---2------2---2------2---2----2----------2----------|
D--3----------3----------2----------2--------------------------------|
A--------------------------------------------------------------------|
E--------------------------------------------------------------------|

   C
e-----------------------|
B------1----------1-----|
G----0---0------0---0---|
D--2----------2---------|
A-----------------------|
E-----------------------|
Tap to rate this tab
 
# A B C D E F G H I J K L M N O P Q R S T U V W X Y Z