Song name
# A B C D E F G H I J K L M N O P Q R S T U V W X Y Z

Galaxie 500 - Blue Thunder tab

Highlighted       Show chord diagrams
Band: Galaxie 500
Song: Blue Thunder
Album: On Fire

tabbed by Jackie Joyner

This is a purely strum along song except for the solo which is hardly
a fret board burner.

Structure:
Pre-Verse
Verse x2
Pre-Verse
Verse
Chorus
Verse
Chorus
Bridge [solo]

Pre-Verse:
[this section is just a variation of a C chord that comes before
the verse]
e|----------------------------------------------------------------|
B|-1---1-1-1-0--0--1--1-1-1-1-0-1---1-1-1-0--0--3-3-3--3-3-3------|
G|-0---0-0-0-0--0--0--0-0-0-0-0-0---0-0-0-0--0--0-0-0--0-0-0------|
D|-2---2-2-2-2--2--2--2-2-2-2-2-2---2-2-2-2--2--2-2-2--2-2-2------|
A|-3---3-3-3-3--3--3--3-3-3-3-3-3---3-3-3-3--3--3-3-3--3-3-3------|
E|----------------------------------------------------------------|

Verse:
G                  C
  Thinkin' of blue thunder
G               C       
   Singin' to myself
G               C
   Thinkin' how fast it moves
G               C
   Feelin how it turns
G                 C
   I was singin' somethin
G                 C
   Out on Route 128
G              C
   Thinkin how blue it looks
G              C
   Singin out aloud

Preverse:
e|----------------------------------------------------------------|
B|-1---1-1-1-0--0--1--1-1-1-1-0-1---1-1-1-0--0--3-3-3--3-3-3------|
G|-0---0-0-0-0--0--0--0-0-0-0-0-0---0-0-0-0--0--0-0-0--0-0-0------|
D|-2---2-2-2-2--2--2--2-2-2-2-2-2---2-2-2-2--2--2-2-2--2-2-2------|
A|-3---3-3-3-3--3--3--3-3-3-3-3-3---3-3-3-3--3--3-3-3--3-3-3------|
E|----------------------------------------------------------------|


Verse:
G             C
   My my blue thunder
G             C
   My my blue thunder
G             C
   My my blue thunder
G                C
   Singin' out aloud

Chorus:
[no lyrics just na na na's]
 C      D
 C      D
 Am     C


Verse:
G             C
   My my blue thunder
G             C
   My my blue thunder
G             C
   My my blue thunder
G                C
   Singin' out aloud

Chorus:
 C      D
 C      D
 Am     C

Bridge:
G                C
   I'll drive so far away
G                C
   I'll drive so far away
G                C
   I'll drive so far away
G                C
   I'll drive so far away

[solo]
G       C      G      C
G       C      G      C

G       C
   Blue thunder
G       C
   Blue thunder
G       C
   Blue thunder
G       C
   Blue thunder

Tap to rate this tab
# A B C D E F G H I J K L M N O P Q R S T U V W X Y Z