Song name
# A B C D E F G H I J K L M N O P Q R S T U V W X Y Z

Gallhammer - Speed Of Blood tab

This song is off their album Ill Innocence (2007).

Like with most of their work the guitar playing is pretty simple and not hard to learn. 
It's more about the rhythm.

There are basically two parts to the song: a tremolo picking part and a power-chord 
based riff.

. = palm mute

NOTE REGARDING TREMOLO PICKING:
I have only listed the notes you'll be playing. Tremolo pick each note.
It will be best if you simply listen to the song to learn the the duration & speed you 
need to play.
Listen to the drums in the song - each note should be tremolo picked for 4 beats.
Regardless all tremolo picking in the song lasts the same duration of time.

E|-----------|
B|-----------|
G|-----------|
D|--4-3-4-5--|
A|-----------|
E|-----------| x8

E|-------------------------------|
B|-------x3--------------x1------|
G|-------------------------------|
D|--4-------5-5/7\5---4-3-3-3-4--|
A|--4-....--5-5/7\5---4-3-3-3-4--|
E|--2-2222--3-3/5\3---2-1-1-1-2--| x2

After that a fast pick slide leads into...

E|-----------|
B|-----------|
G|-----------|
D|--4-3-4-5--|
A|-----------|
E|-----------| x4

E|-------------------------------|
B|-------x3--------------x1------|
G|-------------------------------|
D|--4-------5-5/7\5---4-3-3-3-4--|
A|--4-....--5-5/7\5---4-3-3-3-4--|
E|--2-2222--3-3/5\3---2-1-1-1-2--| x2

Pick slide again and back to tremolo picking...

For these final two tremolo picking parts it sounds like two guitars on the album but 
since there is only one guitarist in the band it is probably played like this (live any way):

E|-----------|
B|-----------|
G|--6-5-6-7--|
D|--4-3-4-5--|
A|-----------|
E|-----------| x4

E|------------|
B|------------|
G|--9-8-9-10--|
D|--7-6-7-8---|
A|------------|
E|------------| x4

E|-------------------------------|
B|-------x3--------------x1------|
G|-------------------------------|
D|--4-------5-5/7\5---4-3-3-3-4--|
A|--4-....--5-5/7\5---4-3-3-3-4--|
E|--2-2222--3-3/5\3---2-1-1-1-2--| x3

E|-------------------|
B|-------x3----------|
G|-------------------|
D|--4-------5-5/7\5--|
A|--4-....--5-5/7\5--|
E|--2-2222--3-3/5\3--|

END!
Tap to rate this tab
# A B C D E F G H I J K L M N O P Q R S T U V W X Y Z