Song name
# A B C D E F G H I J K L M N O P Q R S T U V W X Y Z

Gallhammer - World To Be Ashes tab

This song is featured on the album Ill Innocence (2007).

This song is slow, simple and easy to play. It can be played in normal tuning but I used 
D tuning as I felt it is more comfortable.

There are basically two parts to the song: a power-chord based riff and a short 
arpeggio. Throughout the song they will change very slightly with each "verse". So there is not 
much to learn at all, just memorisation.

. = palm mute

D|------7-----7-----7------|
A|----7-----7-----7-----7--|
F|--4-----4-----5----------|
C|-------------------------|
G|-------------------------|
D|-------------------------| x8
NOTE: on the 8th time play the last note (A string, 7th fret) twice)

D|-------------|
A|-------------|
F|-------------|
C|-------------|
G|--4-.-.-.-5--|
D|--2-2-2-2-3--| x16

D|------7-----7-----7------|  D|------7----7-----7---7----|
A|----7-----7-----7-----7--|  A|----7-----7----7----------|
F|--4-----4-----5----------|  F|--4-----4----5------------|
C|--------------------------------------------------------|             *NOTE*
G|--------------------------------------------------------|
D|--------------------------------------------------------| x4
*NOTE*: on the 4th time play the arpeggio like on the right instead.

D|---------------|
A|---------------|
F|---------------|
C|---------------|
G|--5-4-.-.-.-5--|
D|--3-2-2-2-2-3--| x1

D|-------------|
A|-------------|
F|-------------|
C|-------------|
G|--4-.-.-.-5--|
D|--2-2-2-2-3--| x15

D|-------------|
A|-------------|
F|-------------|
C|-------------|
G|--4-.-.-.-.--|
D|--2-2-2-2-2--| x8

At this point there is high pitched garbled feedback.

D|-----------------------|
A|-----------------------|
F|-----------------------|
C|-----------------------|
G|--4-.-.-.-5-4-.-.-.-.--|
D|--2-2-2-2-3-2-2-2-2-2--| x4

D|-------|
A|-------|
F|-------|
C|-------|
G|--4-4--|
D|--2-2--|
Let this ring and fade out.

THE END!
Tap to rate this tab
# A B C D E F G H I J K L M N O P Q R S T U V W X Y Z