Song name
# A B C D E F G H I J K L M N O P Q R S T U V W X Y Z

Gallhammer - At The Onset Of The Age Of Despair tab

Artist: Gallhammer
Song: At The Onset Of The Age Of Despair
Album: Ill Innocence

\=Slide down

Tuning: Standard

Listen to song for Rhythm


----------------------------------------------------------------------------|
-----------------8-8-7-7------------------------------------------7-7-8-7---|
-9---7-7-9-9---9---------9----7-7-9-9---9---------9---7-7--9-9--9---------9-|
------------------------------------------7-7-9-9---------------------------|
----------------------------------------------------------------------------|
----------------------------------------------------------------------------|

----------------------------------------------------------------------------|
----------------------------------------------------------------------------|
-7-7-9-9--9-7-7-9-9---7-7-9-9-9-7-7-9-9--7-7-9-9-9-7-7\---------------------|
----------------------------------------------------------------------------|
----------------------------------------------------------------------------|
----------------------------------------------------------------------------|

Have fun. :)
Tap to rate this tab
# A B C D E F G H I J K L M N O P Q R S T U V W X Y Z