Song name
# A B C D E F G H I J K L M N O P Q R S T U V W X Y Z

Gallhammer - World To Be Ashes tab

Artist: Gallhammer
Song: World to be Ashes
Album: Ill Innocence

P.M=Palm Mute

Tuning=Down 1 step (DGCFAD)

 -----7-----7-----7-----|
 ---6-----6-----7---7---|
 -4-----4-----5---------|
 -----------------------|
 -----------------------|
 -----------------------|X8


    P.M--     P.M--     P.M-------|
 ---------------------------------|
 ---------------------------------|
 ---------------------------------|
 ---------------------------------|
 -4-------4-4-------4-4-----------|
 -2-2-2-2-2-2-2-2-2-2-2-2-2-2-----|

      P.M--     P.M--     P.M-----|
 ---------------------------------|
 ---------------------------------|
 ---------------------------------|
 ---------------------------------|
 -4-4-------4-4-------4-4---------|
 -2-2-2-2-2-2-2-2-2-2-2-2-2-2-2---|X4

      P.M--
 -----------|
 -----------|
 -----------|
 -----------|
 -4-4-------|
 -2-2-2-2-2-|

 -----7-----7-----7-----|
 ---6-----6-----7---7---|
 -4-----4-----5---------|
 -----------------------|
 -----------------------|
 -----------------------|X4

    P.M--     P.M--     P.M-------|
 ---------------------------------|
 ---------------------------------|
 ---------------------------------|
 ---------------------------------|
 -4-------4-4-------4-4-----------|
 -2-2-2-2-2-2-2-2-2-2-2-2-2-2-----|

      P.M--     P.M--     P.M-----|
 ---------------------------------|
 ---------------------------------|
 ---------------------------------|
 ---------------------------------|
 -4-4-------4-4-------4-4---------|
 -2-2-2-2-2-2-2-2-2-2-2-2-2-2-2---|X4
      P.M--
 ---------------|
 ---------------|
 ---------------|
 ---------------|
 -4-4-------4-4-|
 -2-2-2-2-2-2-2-|

  P.M----   P.M----   P.M---------|
 ---------------------------------|
 ---------------------------------|
 ---------------------------------|
 ---------------------------------|
 ---------4---------4---------4---|
 -2-2-2-2-2-2-2-2-2-2-2-2-2-2-2---|X2

 --------------------------------|
 --------------------------------|
 --------------------------------|
 --------------------------------|
 ---------4---------4-----4-5-4--|
 -2-2-2-2-2-2-2-2-2-2-2-2-2-3-2--|

  P.M----   P.M----   P.M----------------------------------|
 ----------------------------------------------------------|
 ----------------------------------------------------------|
 ----------------------------------------------------------|
 ----------------------------------------------------------|
 -------4-4-4-----4-5-4-----4-4----------------------------|
 ---2-2-2-2-2-2-2-2-3-2-2-2-2-2----------------------------| (play this a couple times)

Have fun! :)
Tap to rate this tab
# A B C D E F G H I J K L M N O P Q R S T U V W X Y Z