Song name
# A B C D E F G H I J K L M N O P Q R S T U V W X Y Z

Gallows - Rolling With The Punches tab

Song: Rolling With The Punches
Band: Gallows
Album: Orchestra Of Wolves
Tuning: Drop D

Sorry its just the intro i`ll tab the rest when i have the time

e--------------------------------------------------------------|
B--------------------------99-9--999-999-999-------------------|
G--------------------------99-9--999-999-999-------------------|
D---7-70--7-70--7-70--770--99-9--999-999-999-------------------|
A---7-70--7-70--7-70--770--66-6--666-666-666-------------------|
E---7-70--7-70--7-70--770--------------------------------------|


e------------------1010---------------------------------------------|
B---12-12-12-12-12------11-11-1111-11-10---10-10b-10---10-----------|
G----------------------------------------12----------12---12-9--7>9-|
D-------------------------------------------------------------------|
A-------------------------------------------------------------------|
E-------------------------------------------------------------------|
Tap to rate this tab
# A B C D E F G H I J K L M N O P Q R S T U V W X Y Z