Guitaretab - guitar tabs
Song name
# A B C D E F G H I J K L M N O P Q R S T U V W X Y Z

Gallows - The Riverbank tab

Song: The Riverbank
Artist: Gallows
Album: Grey Britain

Tabbed by: garyhann
Email: garyhann@live.co.uk

Tuning: Drop D

This is the opening track on Grey Britain which is a REALLY GOOD ALBUM!!!
Probably the easiest song ever too.
				

[WATER N WEIRD SH*T N STUFF]


  1:36
e|----------------------------------------|
B|----------------------------------------|
G|----------------------------------------|
D|--0-0-8-3-7-7-2-2-320-0-8-3-7-2-7-2-32--|
A|--0-0-8-3-7-7-2-2-320-0-8-3-7-2-7-2-32--|
D|--0-0-8-3-7-7-2-2-320-0-8-3-7-2-7-2-32--|
[ Tab from: http://www.guitaretab.com/g/gallows/184969.html ]
  1:49
e|-----------------------------------|
B|-----------------------------------|
G|-----------------------------------|
D|--0-0-8-3-7-7-2-2-0-0-8-3-7-3-7-2--|
A|--0-0-8-3-7-7-2-2-0-0-8-3-7-3-7-2--|
D|--0-0-8-3-7-7-2-2-0-0-8-3-7-3-7-2--|

  2:02
e|----------------------------------------------|
B|----------------------------------------------|
G|----------------------------------------------|
D|--0-0-8-3-7-7-2-2-0-0-8-3-7---2-0~------------|
A|--0-0-8-3-7-7-2-2-0-0-8-3-7---2-0~------------|
D|--0-0-8-3-7-7-2-2-0-0-8-3-7---2-0~------------|
Related for The Riverbank tab
×
The Riverbank