Guitaretab - guitar tabs
Song name
# A B C D E F G H I J K L M N O P Q R S T U V W X Y Z

Gallows - Crucifucks tab

Song: Crucifucks
Artist: Gallows
Album: Grey Britain

Tabbed by: garyhann
Email: garyhann@live.co.uk

Tuning: Drop D

This song is beyond epic. 
Grey Britain is an amazing album.
Gallows are an amazing band.


  0:00
e|---------------------------------------------|
B|---------------------------------------------|
G|--------------------55-----------------------| x2
D|-------------5-77-5-55------------5-77-5-77--|
A|--6-5--3-5-3-5-77-5-33-6-5--3-5-3-5-77-5-77--|
D|-------------5-77-5---------------5-77-5-77--|

  0:10
e|----------------------------------------------|
B|----------------------------------------------|
G|-------55----------------55-5-xx-7-xx-8-xx-9--|
D|--33-3-55-5-77-5-77-33-3-55---xx---xx---xx----|
A|--33-3-33-5-77-5-77-33-3-33-3-xx-5-xx-6-xx-7--|
D|--33-3----5-77-5-77-33-3----------------------|
  
  0:15
e|--------------------------------------|
B|--------------------------------------|
G|-------55----------------55-----------|
D|--33-3-55-5-77-5-77-33-3-55-5-77-5-7--|
A|--33-3-33-5-77-5-77-33-3-33-5-77-5-7--|
D|--33-3----5-77-5-77-33-3----5-77-5-7--|

  0:20
e|---------------------------------------------|
B|---------------------------------------------|
G|--------------------55-----------------------| x2
D|-------------5-77-5-55------------5-77-5-77--|
A|--6-5--3-5-3-5-77-5-33-6-5--3-5-3-5-77-5-77--|
D|-------------5-77-5---------------5-77-5-77--|

  0:30
e|----------------------------------------------|
B|----------------------------------------------|
G|-------55----------------55-5-xx-7-xx-8-xx-9--|
D|--33-3-55-5-77-5-77-33-3-55---xx---xx---xx----|
A|--33-3-33-5-77-5-77-33-3-33-3-xx-5-xx-6-xx-7--|
D|--33-3----5-77-5-77-33-3----------------------|

  0:35
e|------------------------------------------|
B|------------------------------------------|
G|-------55----------------55---------------|
D|--33-3-55-5-77-5-77-33-3-55-7-7-7-7~------|
A|--33-3-33-5-77-5-77-33-3-33-7-7-7-7~------|
D|--33-3----5-77-5-77-33-3----7-7-7-7~------|
                              . . . 


  [BASSLINE WOOOOP]

[ Tab from: http://www.guitaretab.com/g/gallows/184971.html ]
  1:05
e|---------------------------------------------------|
B|---------------------------------------------------|
G|-----------------------------10-9-5--10-9-7--10-9--|
D|--777-101010-777-999-777-555-10-9-5--10-9-7--10-9--|
A|--777--------777-----777-----8--7-3--8--7-5--8--7--|
D|--777--------777-----777---------------------------|
                                                           x2
e|----------------------------------------------------|
B|----------------------------------------------------|
G|-----------------------------10-9-5--10-9-7--10-12--| 
D|--777-101010-777-999-777-555-10-9-5--10-9-7--10-12--|
A|--777--------777-----777-----8--7-3--8--7-5--8--10--|
D|--777--------777-----777----------------------------|

  1:30  Guitar 1
e|-------------------------------------|
B|-------------------------------------|
G|-------------------------------------|
D|-------------------------------------|
A|----------------------3~-----5~------|
D|--77-10-77-9-77-5-3-2----3-2----3-2--|

  1:30  Guitar 2                           x3
e|-------------------------------------|
B|-------------------------------------|
G|-------------------------------------|            
D|----------------------2~-----3~------|
A|-------------------------------------|
D|--77-10-77-9-77-5-3-2----3-2----3-2--|

                   OR

  Tabbed to be played on 1 Guitar
e|-------------------------------------|
B|-------------------------------------|
G|-------------------------------------|
D|----------------------2~-----3~------|
A|----------------------3~-----5~------|
D|--77-10-77-9-77-5-3-2----3-2----3-2--|

  1:48  Guitar 1
e|------------------------------------------------|
B|------------------------------------------------|
G|------------------------------------------------|
D|------------------------------------7~----------|
A|----------------------3~-----5~-----7~----------|
D|--77-10-77-9-77-5-3-2----3-2----3-5-7~----------|

  1:48  Guitar 2
e|------------------------------------------------|
B|------------------------------------------------|
G|------------------------------------------------|
D|----------------------2~-----3~-----7~----------|
A|------------------------------------7~----------|
D|--77-10-77-9-77-5-3-2----3-2----3-5-7~----------|

Related for Crucifucks tab