Guitaretab - guitar tabs
Song name
# A B C D E F G H I J K L M N O P Q R S T U V W X Y Z
Home / G / Gallows / Misery tab

Gallows - Misery tab

Song: Misery
Artist: Gallows
Album: Grey Britain

Tabbed by: garyhann
Email: garyhann@live.co.uk

Tuning: Drop D

OH MY GOODNESS!!!
Best album ever.
Enjoy, :D


  Intro
e|---------|
B|---------|
G|--5-7-8--|
D|--5-7-8--|
A|--3-5-6--|
D|---------|


  Verse
e|---------------------------------------------------------------------------|
B|---------------------------------------------------------------------------|
G|-----------88888888----------------------------88888888---------------578--|
D|--00000000-88888888-55555555-33333333-00000000-88888888-55555555-3333-578--|
A|--00000000-66666666-55555555-33333333-00000000-66666666-55555555-3333-356--|
D|--00000000----------55555555-33333333-00000000----------55555555-3333------|

  
  Chorus  Guitar 1
e|--------------------------------------------------------------------------|
B|--------------------------------------------------------------------------|
G|---------------7755--------------7755--------------7755--------------578--|
D|--000000000000-7755-333333333333-7755-555555555555-7755-333333333333-578--|
A|--000000000000-5533-333333333333-5533-555555555555-5533-333333333333-356--|
D|--000000000000------333333333333------555555555555------333333333333------|

e|---------------------------------------------------------------------------------|
B|---------------------------------------------------------------------------------|
G|---------------7755--------------7755--------------7755--------------------------|
D|--000000000000-7755-333333333333-7755-555555555555-7755-333333333333-3-1-0~------|
A|--000000000000-5533-333333333333-5533-555555555555-5533-333333333333-3-1-0~------|
D|--000000000000------333333333333------555555555555------333333333333-3-1-0~------|
[ Tab from: http://www.guitaretab.com/g/gallows/186242.html ]
  Chorus  Guitar 2
e|--------------------------------------------------------------------------|
B|--------------------------------------------------------------------------|
G|-----------------------------------[x3]------------------------------578--|
D|--0-0-5-0-3-0-0-7-0-8-0-7-0-3-5-3--------0-0-5-0-3-0-0-7-0-8-0-7-0-0-578--|
A|---------------------------------------------------------------------356--|
D|--------------------------------------------------------------------------|

e|---------------------------------------------------------------------------------|
B|---------------------------------------------------------------------------------|
G|-----------------------------------[x3]------------------------------3-1-0~------|
D|--0-0-5-0-3-0-0-7-0-8-0-7-0-3-5-3--------0-0-5-0-3-0-0-7-0-8-0-7-0-0-3-1-0~------|
A|---------------------------------------------------------------------3-1-0~------|
D|---------------------------------------------------------------------------------|


  Breakdown  Guitar 1
e|------------------------------------------------------------|
B|------------------------------------------------------------|
G|-------------------------------------------------------578--|
D|--0-0-0-0--000--000--000-000--[x3]--0-0-0-0--000--000--578--|
A|--0-0-0-0--000--000--000-000--------0-0-0-0--000--000--356--|
D|--0-0-0-0--000--000--000-000--------0-0-0-0--000--000-------|
    . . . .  ...  ...  ... ...        . . . .  ...  ...

  Breakdown  Guitar 2
e|--------------------------------------|
B|--------------------------------------|
G|--------------------------------------|
D|--------------------------------------|
A|----------3----------2p0---3p0--------|
D|--1--0--4---4---3-4------0-----0-3-2--|


  End
e|--------------------|
B|--------------------|
G|--------------------|
D|--0-0-0-0--0-0-0-0--|
A|--0-0-0-0--0-0-0-0--|
D|--0-0-0-0--0-0-0-0--|
    . . . .  . . . .
Related for Misery tab