Guitaretab - guitar tabs
Song name
# A B C D E F G H I J K L M N O P Q R S T U V W X Y Z

Gallows - Misery tab

--------------------------
Misery Intro
Gallows
Grey Britain
Tabbed by spincycled
Drop D
--------------------------
h = hammer on
p = pull off


Part A

E|-----------------------------------------------------|
B|-----------------------------------------------------|
G|---5------5-------5--3---3-5-----2-----2----2--0-----|
D|--3-3---3-------3--3---3--------3-3---3----3-3--3-3--|
A|-5----5-------4----------------3-----3----2------2---|
D|-----------------------------------------------------|

Part B
[ Tab from: http://www.guitaretab.com/g/gallows/186297.html ]
E|-----------------------------------------------------|
B|--------------------------------------3--------------|
G|----7-7h8p7----7-5-5-7-----7-7h8p7------5-3----------|
D|---0----------5-5-5-------5------------3-3-3---------|
A|--0----------6-----------5----------3----------------|
D|-0----------------------5----------3-----------------|


Order:
Part A
Part A
Part B
Part B
Part A
Part A
Part B
Part B

-----------------------------------------------------------
Tabbed by spincycled. Please give credit if used :)
-----------------------------------------------------------
Related for Misery tab
Advertisement will be closed in 10 seconds