Guitaretab - guitar tabs
Song name
# A B C D E F G H I J K L M N O P Q R S T U V W X Y Z

Gallows - Gold Dust tab

Song: Gold Dust
Artist: Gallows

Tabbed by: garyhann
Email: garyhann@live.co.uk

Tuning: Drop D


  Intro - 0:00  
e|-------------|
B|-------------|
G|-------------|
D|--5-3-6-3-0--|
A|--5-3-6-3-0--|
D|--5-3-6-3-0--|


  Verse - 0:02  Guitar 1
e|---------------------------------------------------------------------------|
B|---------------------------------------------------------------------------|
G|---------------------------------------------------------------------------|
D|--0000-356-0000-653-0000-356-5-3-6-3-0000-356-0000-------------------------|
A|--0000-356-0000-653-0000-356-5-3-6-3-0000-356-0000-------------------------|
D|--0000-356-0000-653-0000-356-5-3-6-3-0000-356-0000-------------------------|

  0:02  Guitar 2
e|-----------------------------------------------------------------------|
B|-----------------------------------------------------------------------|
G|-----------------------------------------------------------------------|
D|-----------------------------5-3-6-3-0-----0-----0-----0~-----5-3-6-3--|
A|-----------------------------5-3-6-3-0-----0-----0-----0~-----5-3-6-3--|
D|-----------------------------5-3-6-3-0-----0-----0-----0~-----5-3-6-3--|

[ Tab from: http://www.guitaretab.com/g/gallows/186447.html ]
  Chorus - 0:21  Both Guitars
e|-------------------------------------------|
B|-------------------------------------------|
G|-------------------------------------------|
D|--55555-888-55555-666-55555-888-5555-3333--|
A|--55555-888-55555-666-55555-888-5555-3333--|
D|--55555-888-55555-666-55555-888-5555-3333--|


[PLAY VERSE TO CHORUS]

 
  Bridge - 0:40 Guitar 1
e|-----------------------------------------------------------------------------|
B|-----------------------------------------------------------------------------|
G|-----------------------------------------------------------------------------|
D|--//7-5-3-0---0-3~---//7-5-3-0---3h5-3~---//7-5-3-0---0-3~---//7-5-3-55-3-6--|
A|------------3------------------3-------------------------------------55-3-6--|
D|---------------------------------------------------------------------55-3-6--|

  0:40  Guitar 2
e|-----------------------------------------------------------------------------|
B|-----------------------------------------------------------------------------|
G|-----------------------------------------------------------------------------|
D|--0~-----------------3~--------5~---------0~-------------------------55-3-6--|
A|--0~-----------------3~--------5~---------0~-------------------------55-3-6--|
D|--0~-----------------3~--------5~---------0~-------------------------55-3-6--|


[END WITH VERSE]



Related for Gold Dust tab