Song name
# A B C D E F G H I J K L M N O P Q R S T U V W X Y Z

Gallows - In The Belly Of A Shark tab

this is my first tab so sorry if its rubbish 

E|--------------------------------------------------------|
B|-10--10--10--10--10--10---------------------------------|
G|-12b-12b-12b-12b-12b-12b-12p10----10-----------10-------|
D|-------------------------------12----12--10h12----------|
A|--------------------------------------------------------|
D|--------------------------------------------------------|

E|--------------------------------------------------------|
B|-----------------------------10--10--10--13--13--13-----|
G|--------10-------10-------10-12b-12b-12b-15b-15b-15b----|
D|--10h12----10h12----10h12-------------------------------|
A|--------------------------------------------------------|
D|--------------------------------------------------------|

E|--------------------------------------------------------|
B|-16--16--16--15----15--18-------------------------------|
G|-18b-18b-18b-17b---17b----17-16-16-16-17p16-17p16-16----|
D|--------------------------------------------------------|
A|--------------------------------------------------------|
D|--------------------------------------------------------|

E|--------------17-20p17-20p17-20p17-20p17-20p17-20p17----|
B|-15--18----18-------------------------------------------|
G|-17b----17----------------------------------------------|
D|--------------------------------------------------------|
A|--------------------------------------------------------|
D|--------------------------------------------------------|

E|-20p17-20-20b-------------------------------------------|
B|--------------------------------------------------------|
G|--------------------5-----------5-----------5-----------|
D|--------------------5-3---------5-3---------5-3--0------|
A|--------------------3-3---------3-3---------3-3--0------|
D|---------------1-1-1--3---1-1-1---3---1-1-1---3--0------|
                 . . .      . . .       . . .

Tap to rate this tab
# A B C D E F G H I J K L M N O P Q R S T U V W X Y Z