Song name
# A B C D E F G H I J K L M N O P Q R S T U V W X Y Z

Gama Bomb - Bullet Belt tab

-------------------------------------------------------------------------------
			     Bullet Belt - Gama Bomb
-------------------------------------------------------------------------------
Tabbed by:Dakota Richards
Email:drichards_11@yahoo.com

Tuning:Standard

. = P.M.
/,\ = Slide
h = Hammer On
~ = vabrito

|--------------------------------|x3
|--------------------------------|
|--------------------------------|
|-9------9------9-------10-9-----|
|-7-7777-7-7777-7-7-9-10----10-9-|
|--------------------------------|
    ....   ....   . . .
|-0h5h8-0h5h8-----------------------------------------------|
|-----------0h5h8-0h5h8-0h4h7-0h4h7-0h2h5-0h2h5 0h5~~~~~~~~-|
|-----------------------------------------------------------|
|-----------------------------------------------------------|
|-----------------------------------------------------------|
|-----------------------------------------------------------|

|-------------------------------------|
|-------------------------------------|
|-------------------------------------|
|-9-----9-----11/10-9-----9-----------|
|-7-----7-----9/8---7-----7-----10\11-|
|---000--000----------000---000-8\9---|
Tap to rate this tab
# A B C D E F G H I J K L M N O P Q R S T U V W X Y Z