Song name
# A B C D E F G H I J K L M N O P Q R S T U V W X Y Z

Gama Bomb - Mussolini Mosh tab

Tabbed by:Ian 
Email: ijrrevallo@yahoo.com

Tuning: Standard

This is the part in the intro that just makes you wanna bang your head :)

0:18
e|----------------------------------------------------------------------|
B|----------------------------------------------------------------------|
G|----------------------------------------------------------------------|
D|-2----------9---------------------------------------------------------|
A|-2----------7-8----------5-8-----------8-5----------------------------|
E|-0-0-0-0-0----6--0-0-0-0-3-6--0-0-0-0--6-3--0-0-0-0-0-0---------------|
     .......       .......      .......       ...........

e|----------------------------------------------------------------------|
B|----------------------------------------------------------------------|
G|----------------------------------------------------------------------|
D|-2----------9---------------------------------------------------------|
A|-2----------7-8----------5-8-----------8-5----------------------------|
E|-0-0-0-0-0----6--0-0-0-0-3-6--0-0-0-0--6-3--0-0-0-0-0-0---------------|
     .......       .......      .......       ...........
e|----------------------------------------------------------------------|
B|----------------------------------------------------------------------|
G|----------------------------------------------------------------------|
D|-2----------9---------------------------------------------------------|
A|-2----------7-8----------5-8-----------8-5----------------------------|
E|-0-0-0-0-0----6--0-0-0-0-3-6--0-0-0-0--6-3--0-0-0-0-0-0---------------|
     .......       .......      .......       ...........

e|------------------------------------------------------------------------|
B|------------------------------------------------------------------------|
G|------------------------------------------------------------------------|
D|-2----------9-----------------------------2~----------------------------|
A|-2----------7-8----------5-8-----------8--2~----------------------------|
E|-0-0-0-0-0----6--0-0-0-0-3-6--0-0-0-0--6--0~----------------------------|

0:35
     .......       .......      .......       
Tap to rate this tab
# A B C D E F G H I J K L M N O P Q R S T U V W X Y Z