Song name
# A B C D E F G H I J K L M N O P Q R S T U V W X Y Z

Gama Bomb - Ocp tab

Gama Bomb - OCP

Album: "Citizen Brain" (2008)
Tabbed by: TerrorMetal	
Email: gdreater@hotmail.com


Tuning: E

Riff 1
Guitar
e|-------------------------------------------------|
B|-------------------------------------------------|
G|-------------------------------------------------|
D|-------------------------------------------------|
A|-------------------------------------------------|
E|-0-0-6-0-0-6-0-0-0-0-0-0-5-0-0-5-0-0-3-0-0-3-0-0-|
   * * * * * * * * * * * * * * * * * * * * * * * * 

e|-------------------------------------------------|
B|-------------------------------------------------|
G|-------------------------------------------------|
D|-------------------------------------------------|
A|-------------------------------------3-----3-----|
E|-0-0-6-0-0-5-0-0-0-0-0-0-5-0-0-3-0-0-1-----1-----|
   * * * * * * * * * * * * * * * * * *

Guitar 2
e|-------------------------------------------------|
B|-------------------------------------------------|
G|-------------------------------------------------|
D|-------------------------------------------------|
A|-------------------------------------------------|
E|-------------------------------------------------|


e|-------------------------------------------------|
B|-------------------------------------------------|
G|-------------------------------------------------|
D|-------------------------------------------------|
A|-------------------------------------3-----3-----|
E|-------------------------------------1-----1-----|

Riff 2
e|-------------------------------------------------|
B|-------------------------------------------------|
G|-------------------------------------------------|
D|-------------------------------------------------|
A|-------------------------------------------------|
E|-0-0-6-0-0-6-0-0-0-0-0-0-5-0-0-5-0-0-3-0-0-3-0-0-|
   * * * * * * * * * * * * * * * * * * * * * * * * 

e|-------------------------------------------------|
B|-------------------------------------------------|
G|-------------------------------------------------|
D|-------------------------------------------------|
A|-------------------------------------3-----3-----|
E|-0-0-6-0-0-5-0-0-0-0-0-0-5-0-0-3-0-0-1-----1-----|
   * * * * * * * * * * * * * * * * * *

Riff 3
e|---------------------------------|
B|---------------------------------|
G|---------------------------------|
D|-2-----3-------------------------|
A|-0-----1-----2-------------------|
E|-----0-----0-0---0-0-0-0-0-0-0-0-|
       *     *     * * * * * * * * 

Riff 4
e|---------------------------------|
B|---------------------------------|
G|---------------------------------|
D|-2-------------------------------|
A|-2-------------------------------|
E|-0-------------------------------|



Song Structure
Riff 1
Riff 2  (3 Times)
Riff 3  (4 Times)
Riff 2  (2 Times)
Riff 4
Tap to rate this tab
# A B C D E F G H I J K L M N O P Q R S T U V W X Y Z