Song name
# A B C D E F G H I J K L M N O P Q R S T U V W X Y Z

Game On - For Alla Oss tab

-----------------------------------------------------------------------------
                 FÖR ALLA OSS - Game On
-----------------------------------------------------------------------------
Tabbed by: iMx2oT

Tuning: Standard (EBGDAE)

This is the guitar part from the Unibet commercial (shown in Sweden)
(Link to the song; http://www.youtube.com/watch?v=MJjrJ6jq6f8)
Also, this is my first tab so don't hate.


This is from the "Måndag, tisdag, onsdag, torsdag ..." part
E|------------------------------|
B|--------------------13--------|
G|12------14--14--16------16--12|
D|----12------------------------|
A|------------------------------|
E|------------------------------|

E|------------------------------------------------|
B|--------15--17--15--12------12--13--13----------|
G|17--17------------------14--------------12------|
D|--------------------------------------------12*~|
A|------------------------------------------------|
E|------------------------------------------------|


************************************
| ~   vibrato
| *   let ring
************************************
Tap to rate this tab
 
# A B C D E F G H I J K L M N O P Q R S T U V W X Y Z