Song name
# A B C D E F G H I J K L M N O P Q R S T U V W X Y Z

Gamits - Like White Noise tab

The Gamits - "Like White Noise"
Tabbed by: Alex Miskell

Tuning: Standard (eADGBE)

Intro
e|-------------------------------------------|
B|-------------------------------------------|
G|-------------------------------------------|
D|---------55555555--------------------------|  x4
A|22222222-33333333-5555555555555555---------|
E|00000000----------3333333333333333---------|

e|----------------------------|
B|----------------------------|
G|----------------------------|
D|-------555555---------------| x2
A|222222-333333-555555-555555-|
E|000000--------333333-333333-|

e|----------------|
B|----------------|
G|44-55-44--------|
D|xx-xx-xx-44-----|
A|22-33-22-xx-----|
E|---------22-----|

verse
e|---------------------------|
B|---------------------------|
G|---------------------------|
D|-------555555--------------| x4
A|222222-333333-555555555555-|
E|000000--------333333333333-|

Chorus                                  "There's a thousand..."
e|--------------------------------------|-----------------------|
B|--------------------------------------|-----------------------|
G|--------------------------------------|-----------------------|
D|55555555----------55555555------------|--44444444-----777--5--|
A|33333333-55555555-33333333-5555555----|--22222222-222-555--3--|
E|---------33333333----------3333333----|-----------000---------|


e|----------------|
B|----------------|
G|44-55-44--------|
D|xx-xx-xx-44-----|
A|22-33-22-xx-----|
E|---------22-----|

Verse 2
Guitar one:
e|---------------------------|
B|---------------------------|
G|---------------------------|
D|-------555555--------------| x4
A|222222-333333-555555555555-|
E|000000--------333333333333-|

Verse 2
Guitar two:
e|---------------------------------------------------|
B|---------------------------------------------------|
G|---------12-------12-------12---11-11--------------|
D|----------x--------x--------x----x-x---------------|
A|10-10-10-10-10-10-10-10-10-10-10-9-9---------------|
E|---------------------------------------------------|

Chorus 2                                "There's a thousand..."
e|--------------------------------------|-----------------------|
B|--------------------------------------|-----------------------|
G|--------------------------------------|-----------------------|
D|55555555----------55555555------------|--44444444-----777--5--|
A|33333333-55555555-33333333-5555555----|--22222222-222-555--3--|
E|---------33333333----------3333333----|-----------000---------|

e|----------------|
B|----------------|
G|44-55-44--------|
D|xx-xx-xx-44-----|
A|22-33-22-xx-----|
E|---------22-----|

Bridge
e|-----------------------------------------------------------------------|
B|-----------------------------------------------------------------------|
G|-----------------------------------------------------------------------|
D|--------------------5555555555555555------------------4444444444444444-|
A|2222222222222222----3333333333333333-5555555555555555-2222222222222222-|
E|0000000000000000---------------------3333333333333333------------------|


e|-----------------|
B|-----------------|
G|-----------------|
D|55555555---------|
A|33333333---------|
E|-----------------|

Verse 3
e|---------------------------|
B|---------------------------|
G|---------------------------|
D|-------555555--------------| x4
A|222222-333333-555555555555-|
E|000000--------333333333333-|

Chorus 3 / Outro                         "There's a thousand..."
e|--------------------------------------|-----------------------|
B|--------------------------------------|-----------------------|
G|--------------------------------------|-----------------------|
D|55555555----------55555555------------|--44444444-----777--5--|
A|33333333-55555555-33333333-5555555----|--22222222-222-555--3--|
E|---------33333333----------3333333----|-----------000---------|


| /  slide up
| \  slide down
| h  hammer-on
| p  pull-off
| ~  vibrato
| +  harmonic
| x  Mute note
=============================================================================
Tap to rate this tab
# A B C D E F G H I J K L M N O P Q R S T U V W X Y Z