Song name
# A B C D E F G H I J K L M N O P Q R S T U V W X Y Z

Gamits - Last Of The Mullets tab

----------------------------------------------------------------------------
                     -THE LAST OF THE MULLETS 
                      by  
                     -The Gamits
----------------------------------------------------------------------------


e|--11----11----11--11----11----11--10----10----10--11----11----11---------|
B|----13----13--------11----11--------12----12--------13----13-------------|
G|13----13----13--12----12----12--12----12----12--12----12----12-----------|
D|-------------------------------------------------------------------------|
A|-------------------------------------------------------------------------|
E|-------------------------------------------------------------------------|

e|-------------------------------------------------------------------------|
B|-------------------------------------------------------------------------|
G|--------88888888--------55555555-----88887777----------------------------|
D|666666668888888855555555555555556~~~~88887777----------------------------|
A|666666666666666655555555333333336~~~~66665555----------------------------|
E|44444444----666633333333----66664~~~~------------------------------------|

e|-------------------------------------------------------------------------|
B|-------------------------------------------------------------------------|
G|8xx8xx8x8xx8xx8x5xx5xx5x--------8xx8xx8x8xx8xx8x5xx5xx5x-----------------|
D|------------------------6xx6xx6x-------------------------------------0-3-|
A|6xx6xx6x5xx5xx5x3xx3xx3x--------6xx6xx6x5xx5xx5x3xx3xx3x-------0-2-3-----|
E|------------------------4xx4xx4x-------------------------3-2-3-----------|

e|----------------------------------------7xx7xx7x3xx3xx3x4xx4xx4x---------|
B|--------------------------------8xx8xx8x---------------------------------|
G|8xx8xx8x8xx8xx8x5xx5xx5x--------8xx8xx8x8xx8xx8x5xx5xx5x-----------------|
D|------------------------6xx6xx6x------------------------6xx6xx6x---------|
A|6xx6xx6x5xx5xx5x3xx3xx3x--------6xx6xx6x5xx5xx5x3xx3xx3x-----------------|
E|------------------------4xx4xx4x------------------------4xx4xx4x---------|

e|-------------------------------------------------------------------------|
B|-------------------------------------------------------------------------|
G|----------------8888888888888888----------------8~~~7777777777777--------|
D|5555555566666666888888888888888855555555666666668~~~7777777777777--------|
A|5555555566666666666666666666666655555555666666666~~~5555555555555--------|
E|3333333344444444----------------3333333344444444-------------------------|

e|------------------------------------(saveing space.  Each 10 = 2 10's.)--|
B|-------------------------------------------------------------------------|
G|8888888888888888---------------------------------------------------------|
D|8888888888888888888888888888999910101010101088886666666666666666---------|
A|6666666666666666888888888888999910101010101088886666666666666666---------|
E|----------------666666666666777788888888888866664444444444444444---------|

e|-------------------------------------------------------------------------|
B|-------------------------------------------------------------------------|
G|8888888810887788---------------------------------------------------------|
D|8888888888888888888888881088778810101010101088108~~~666666666666---------|
A|6666666666666666888888888888888810101010101010108~~~666666666666---------|
E|----------------666666666666666688888888888888886~~~444444444444---------|

e|-------------------------------------------------------------------------|
B|-------------------------------------------------------------------------|
G|66666666----------------8888888866666666--------------------4xxxxxxxxxxx-|
D|6666666655555555666666668888888866666666555555556xxxxxxxxxxx4xxxxxxxxxxx-|
A|4444444455555555666666666666666644444444555555556xxxxxxxxxxx2xxxxxxxxxxx-|
E|--------3333333344444444----------------333333334xxxxxxxxxxx-------------|
Tap to rate this tab
 
# A B C D E F G H I J K L M N O P Q R S T U V W X Y Z