Song name
# A B C D E F G H I J K L M N O P Q R S T U V W X Y Z

Gamma Ray - The Saviour tab

Gamma Ray - The Saviour
Album: Land of the Free


E|-------------------------------------------------------------------|
B|-------------------------------------------------------------------|
G|-------------------------------------------------------------------|
D|-------------------------------------------------------------------|
A|--6--8--9---8--6--4------4--6--8--6----6--8--9---8--6--4-----8--6--|
E|---------------------6------------------------------------6--------|


E|-------------------------------------------------------------------|
B|-------------------------------------------------------------------|
G|-------------------------------------------------------------------|
D|--8--10-11--10-8--6------6--8--10-8----8--10-11--10-8--6-----10-8--|
A|--6--8--9---8--6--4--8---4--6--8--6----6--8--9---8--6--4--8--8--6--|
E|---------------------6------------------------------------6--------| X2



Tabbed by nick_code
It's my first tab, hope you enjoy it :D


Tap to rate this tab
# A B C D E F G H I J K L M N O P Q R S T U V W X Y Z